Log in

One click and you are in

Login with Facebook Login with Google

Why sign up and log in

Guitar Tabs Explorer
Misc Soundtrack bass tabs for Magic roundabout theme

Magic Roundabout Theme bass tab by Misc Soundtrack

Misc Soundtrack bass tabs for Magic roundabout theme

Bass tabs

G|-12--12-12---------9-9-9-9----|-5--5-5-----7-7-7-7----|
D|-----------12--12----------9-9|--------5-5---------7-7|
A|------------------------------|-----------------------|
E|------------------------------|-----------------------|

G|-12--12-12---------9-9-9-9----|-5--5-5-----7-7-7-7----|-12---||
D|-----------12--12----------9-9|--------5-5---------7-7|------||
A|------------------------------|-----------------------|------||
E|------------------------------|-----------------------|------||

Feel free to comment but i probably won't bother to check.

Almost there ...

Sign in to get your own page with links to favourite songs and more. You are just one click away...

Login with Facebook Login with Google