Log in

One click and you are in

Login with Facebook Login with Google

Why sign up and log in

Guitar Tabs Explorer
Misc Soundtrack bass tabs for Lovely complex - kimi boku love

Lovely Complex - Kimi Boku Love bass tab by Misc Soundtrack

Misc Soundtrack bass tabs for Lovely complex - kimi boku love

Bass tabs

Intro:
  1 + 2 + 3 + 4 +  1 + 2 + 3 + 4 +  1 + 2 + 3 + 4 +  1 + 2 + 3 + 4 +
G|------------------|-----------------|-----------------|-----------------|
D|------------------|---------4-------|-----------------|-----2-------4---|
A|-2-2---2---2------|-------------6---|-----------------|---2-------4-----|
E|-----2-------2-/6-|---6-6-6-------6-|-4-4-2-4---4-2-4-|-0-------2-------|

  1 + 2 + 3 + 4 +  1 + 2 + 3 + 4 +  1 + 2 + 3 + 4 +  1 + 2 + 3 + 4 +
G|------------------|-----------------|-----------------|-----------------|
D|------------------|---------4-------|-----------------|-----2-------4---|
A|-2-2---2---2------|-------------6---|-----------------|---2-------4-----|
E|-----2-------2-/6-|-6-6-6-6-------6-|-4-4-2-4---4-2-4-|-0-------2-------|

1st verse:
  1 + 2 + 3 + 4 +  1 + 2 + 3 + 4 +  1 + 2 + 3 + 4 +  1 + 2 + 3 + 4 +
G|-----------------|-----------------|-----------------|-----------------|
D|-----1-4---------|-----------------|-----------------|-----------------|
A|-2-2-------------|---------4-4-----|-------6---------|-----------------|
E|---------------4-|-6---6-------7-6-|-4-4-7---------4-|-0---0---2---2/--|

  1 + 2 + 3 + 4 +  1 + 2 + 3 + 4 +  1 + 2 + 3 + 4 +  1 + 2 + 3 + 4 +
G|-----------------|-----------------|-----------------|-----------------|
D|-----------------|-----------------|-----------------|-----------------|
A|-----6-9---------|---------4-4-----|-------6---------|-----------------| x2
E|-7-7-----------4-|-6---6-------7-6-|-4-4-7---------4-|-0---0---2---2/--|

  1 + 2 + 3 + 4 +  1 + 2 + 3 + 4 +  1 + 2 + 3 + 4 +  1 + 2 + 3 + 4 +
G|-----------------|-----------------|-----------------|-----------------|
D|-----------------|-----------------|-----------------|-----------------|
A|-----6-9---------|---------4-4-----|-------6---------|-----------------|
E|-7-7-----------4-|-6---6-------7-6-|-4-4-7---------2-|-4-2-4---4---2---|

1st pre-chorus:
  1 + 2 + 3 + 4 +  1 + 2 + 3 + 4 +  1 + 2 + 3 + 4 +  1 + 2 + 3 + 4 +
G|-----------------|-----------------|------------------|-----------------|
D|-----------2-----|-------4-2-------|--------------5---|-6---6\--4---4---|
A|-------------2---|-----4-------2---|-/6---6---6-----6-|---------------2-|
E|-0-------------0-|-2---------------|--------6---------|-----------------|

  1 + 2 + 3 + 4 +  1 + 2 + 3 + 4 +  1 + 2 + 3 + 4 +  1 + 2 + 3  + 4 +
G|-----------------|-----------------|-----------------|--------------------|
D|-3-----3-------3-|-------3---3-3---|-4---4-2-2-------|--------------------|
A|-----2-------2---|-----2---------2-|---4-------4-2-1-|--------------------|
E|---4-------4-----|---4-------------|-----------------|-2---2------/12\----|

1st chorus:
  1 + 2 + 3 + 4 +  1 + 2 + 3 + 4 +  1 + 2 + 3 + 4 +  1 + 2 + 3 + 4 +
G|-----------------|------------------|-----------------|-----------------|
D|-----------------|------------------|-----------------|-----------------|
A|-2-2---2---2---2-|-/6-6-6-6---------|-------2---2-----|-----2-----------|
E|-----2-------2---|----------6---4-6-|-0-0-4---------4-|-0-0---0-2---3---|

  1 + 2 + 3 + 4 +  1 + 2 + 3 + 4 +  1 + 2 + 3 + 4 +  1 + 2 + 3 + 4 +
G|-----------------|------------------|-----------------|-----------------|
D|-----------------|------------4-----|-----------------|-4-4-------------|
A|-----------------|----------4---4---|-------2---2-----|-----4-------4---|
E|-4-4-2-4---4-2-4-|-2-2-/6-----------|-0-0-4---------2-|---------2-----2-|

  1 + 2 + 3 + 4 +  1 + 2 + 3 + 4 +  1 + 2 + 3 + 4 +  1 + 2 + 3 + 4 +
G|-----------------|------------------|-----------------|-----------------|
D|-----------------|------------------|-----------------|-----------------|
A|-2-2---2---2---2-|-/6-6-6-6---------|-----------------|-----------------|
E|-----2-------2---|----------6---4-6-|-0-----0-----1---|---------2---4---|

  1 + 2 + 3 + 4 +  1 + 2 + 3 + 4 +
G|-----------------|-----------------|
D|-----------------|-----------------|
A|-4---4---6---6---|-7---------------|
E|---4-------7---7-|---7-0---2-2-2-2-|

Pre-verse:
  1 + 2 + 3 + 4 +  1 + 2 + 3 + 4 +  1 + 2 + 3 + 4 +  1 + 2 + 3 + 4 +
G|------------------|-----------------|-----------------|-----------------|
D|------------------|---------4-------|-----------------|-----2-------4---|
A|-2-2---2---2------|-------------6---|-----------------|---2-------4-----|
E|-----2-------2-/6-|-6-6-6-6-------6-|-4-4-2-4---4-2-4-|-0-------2-------|

  1 + 2 + 3 + 4 +  1 + 2 + 3 + 4 +  1 + 2 + 3 + 4 +  1 + 2 + 3 + 4 +
G|------------------|-----------------|-----------------|-----------------|
D|------------------|---------4-------|-----------------|-----------------|
A|-2-2---2---2------|-------------6---|-------------2---|-----------------|
E|-----2-------2-/6-|-6-6-6-6-------6-|-4-4-2-4---4---4-|-----------------|

2nd verse:
G|-----------------|-----------------|-----------------|-----------------|
D|-----------------|-----------------|-----------------|-----------------|
A|-----6-9---------|---------4-4-----|-------6---------|-----------------|
E|-7-7-------------|-6---6-------7-6-|-4-4-7---------4-|-0---0---2---2/--|

G|-----------------|-----------------|-----------------|-----------------|
D|-----------------|-----------------|-----------------|-----------------|
A|-----6-9---------|---------4-4-----|-------6---------|-----------------| x2
E|-7-7-----------4-|-6---6-------7-6-|-4-4-7---------4-|-0---0---2---2/--|

  1 + 2 + 3 + 4 +  1 + 2 + 3 + 4 +  1 + 2 + 3 + 4 +  1 + 2 + 3 + 4 +
G|-----------------|-----------------|-----------------|-----------------|
D|-----------------|-----------------|-----------------|-----------------|
A|-----6-9---------|---------4-4-----|-------6---------|-----------------|
E|-7-7-----------4-|-6---6-------7-6-|-4-4-7---------2-|-4-2-4---4---2---|

2nd pre-chorus:
  1 + 2 + 3 + 4 +  1 + 2 + 3 + 4 +  1 + 2 + 3 + 4 +  1 + 2 + 3 + 4 +
G|-----------------|-----------------|------------------|-----------------|
D|-----------2-----|-------4-2-------|--------------5---|-6---6---4-------|
A|-------------2---|-----4---------2-|-/6---6---6-6---6-|-------2-------2-|
E|-0-------------0-|-2---------------|--------6---------|-----------------|

  1 + 2 + 3 + 4 +  1 + 2 + 3 + 4 +  1 + 2 + 3 + 4 +  1 + 2 + 3  + 4 +
G|-----------------|-----------------|-----------------|--------------------|
D|-3-----3-------3-|-------3---3-3---|-4---4-2-2-------|--------------------|
A|-----2-------2---|-----2---------2-|---4-------4-2-1-|--------------------|
E|---4-------4-----|---4-------------|-----------------|-2---2------/12\----|

2nd chorus:
  1 + 2 + 3 + 4 +  1 + 2 + 3 + 4 +  1 + 2 + 3 + 4 +  1 + 2 + 3 + 4 +
G|-----------------|------------------|-----------------|-----------------|
D|-----------------|------------------|-----------------|-----------------|
A|-2-2---2---2---2-|-/6-6-6-6---------|-------2---2-----|-----2-----------|
E|-----2-------2---|----------6---4-6-|-0-0-4---------4-|-0-0---0-2---3---|

  1 + 2 + 3 + 4 +  1 + 2 + 3 + 4 +  1 + 2 + 3 + 4 +  1 + 2 + 3 + 4 +
G|-----------------|------------------|-----------------|-----------------|
D|-----------------|------------4-----|-----------2-2---|-4-4-------------|
A|-----------------|----------4---4---|-------2-------2-|-----4-------4---|
E|-4-4-2-4---4-2-4-|-2-2-/6-----------|-0-0-4-----------|---------2-----2-|

  1 + 2 + 3 + 4 +  1 + 2 + 3 + 4 +  1 + 2 + 3 + 4 +  1 + 2 + 3 + 4 +
G|-----------------|------------------|-----------------|-----------------|
D|-----------------|------------------|-----------------|-----------------|
A|-2-2---2---2---2-|-/6-6-6-6---------|-----------------|-----------------|
E|-----2-------2---|----------6---4-6-|-0-----0-----1---|---------2---4---|

  1 + 2 + 3 + 4 +  1 + 2 + 3 + 4 +
G|-----------------|-----------------|
D|-----------------|-----------------|
A|-4---4---6---6---|-7---------------|
E|---4-------7-----|---7-0---2-2-2-2-|

Bridge:
  1 + 2 + 3 + 4 +
G|------------------|--------|--------|-------|
D|------------------|--------|--------|-------|
A|------------------|--------|--------|-------|
E|-/7\--------------|--------|--------|-------|

  1 + 2 + 3 + 4 +  1 + . 2 +  3 + 4 +  1 + 2 + 3 + 4 +  1 + 2 + 3 + 4 +
G|-----4-----------|---6-6-6--6--/8---6---|-----4-----------|-----------------|
D|---------4-------|----------------------|---------4-------|---2-----1-------|
A|-----------------|----------------------|---------------4-|-4---4-----4-----|
E|-----------------|----------------------|-----------------|-----------------|

  1 + 2 + 3 + 4 +  1 + 2 + 3 + 4 +  1 + 2 + 3 + 4 +  1 + 2 + 3 + 4 +
G|-----------------|-----------------|-----------------|-----------------|
D|-----1-4---1-----|---------1-------|-----1-4---------|---------1-------|
A|-2-2---------2---|-4-4-4-4-----4---|-2-2-------2---2-|-4-4-4-4-----4---|
E|---------------2-|---------------2-|-------------2---|---------------2-|

  1 + 2 + 3 + 4 +  1 + 2 + 3 + 4 +  1 + 2 + 3 + 4 +  1 + 2 + 3 + 4 +
G|-----------------|-----------------|-----------------|--------------------|
D|-----1-4---------|---------1-------|-----1-4---------|--------------------|
A|-2-2-------2---2-|-4-4-4-4-----4---|-2-2-------2---2-|--------------------|
E|-------------2---|---------------2-|-------------2---|-2---2-------/12\---|

3rd chorus:
  1 + 2 + 3 + 4 +  1 + 2 + 3 + 4 +  1 + 2 + 3 + 4 +  1 + 2 + 3 + 4 +
G|-----------------|------------------|-----------------|-----------------|
D|-----------------|------------------|-----------------|-----------------|
A|-2-2---2---2---2-|-/6-6-6-6---------|-------2---2-----|-----2-----------|
E|-----2-------2---|----------6---4-6-|-0-0-4---------4-|-0-0---0-2---3---|

  1 + 2 + 3 + 4 +  1 + 2 + 3 + 4 +  1 + 2 + 3 + 4 +  1 + 2 + 3 + 4 +
G|-----------------|------------------|-----------------|-----------------|
D|-----------------|------------4-----|-----------------|---------4-4-----|
A|-----------------|----------4---4---|-------2---2-2---|-----4-------4---|
E|-4-4-2-4---4-2-4-|-2-2-/6-----------|-0-0-4---------0-|-2-2-------------|

  1 + 2 + 3 + 4 +  1 + 2 + 3 + 4 +  1 + 2 + 3 + 4 +  1 + 2 + 3 + 4 +
G|-----------------|------------------|-----------------|-----------------|
D|-----------------|------------------|-----------------|-----------------|
A|-2-2---2---2---2-|-/6-6-6-6---------|-----------------|-----------------|
E|-----2-------2---|----------6---4-6-|-0-----0-----1---|---------2---4---|

  1 + 2 + 3 + 4 +  1 + 2 + 3 + 4 +
G|-----------------|-----------------|
D|-----------------|-----------------|
A|-4---4---6---6---|-7---------------|
E|---4-------7---7-|---7-0---2-2-2-2-|

  1 + 2 + 3 + 4 +  1 + 2 + 3 + 4 +  1 + 2 + 3 + 4 +  1 + 2 + 3 + 4 +
G|-------------------|--------------------|-----------------|-----------------|
D|-------------------|--------------------|-----------------|-----------------|
A|-------------------|--------------------|-------2---2-----|-----2-----------|
E|-/7-7\-------------|-6-6------/16\------|-0-0-4---------4-|-0-0---0-2---3---|

  1 + 2 + 3 + 4 +  1 + 2 + 3 + 4 +  1 + 2 + 3 + 4 +  1 + 2 + 3 + 4 +
G|-----------------|-----------------|-----------------|-----------------|
D|-----------------|-----------4-----|-----------------|---------4-4-----|
A|-----------------|-----1---4---4---|-------2---2-2---|-----4-------4/--|
E|-4-4-2-4---4-2-4-|-2-2-------------|-0-0-4---------0-|-2-2-------------|

  1 + 2 + 3 + 4 +  1 + 2 + 3 + 4 +  1 + 2 + 3 + 4 +  1 + 2 + 3 + 4 +
G|-----------------|-----------------|-----------------|-----------------|
D|-9-8-------------|-----------------|-----------------|-----------------|
A|-----9-6---2-----|-6-6-6-6---------|-----------------|-----------------|
E|---------------2-|---------6---4-6-|-0-----0-----1---|---------2---4---|

  1 + 2 + 3 + 4 +  1 + 2 + 3 + 4 +
G|-----------------|-----------------|
D|-----------------|-----------------|
A|-4---4---6---6---|-7---------------|
E|---4-------7---7-|---7-0---2-2-2-2-|

  1 + 2 + 3 + 4 +  1 + 2 + 3 + 4 +  1 + 2 + 3 + 4 +  1 + 2 + 3 + 4 +
G|-----------------|-------------------|-----------------|-----------------|
D|---6---3---4---5-|---6---8---10------|-----------------|-----------------|
A|-----------------|-------------------|-4---4---6---6---|-7---------------|
E|-4---1---2---3---|-4---6---8----11\--|---4-------7---7-|---7-0---2-2-2-2-|

G|--------|
D|--------|
A|--------|
E|--------|

End:
  1 + 2 + 3 + 4 +  1 + 2 + 3 + 4 +  1 + 2 + 3 + 4 +  1 + 2 + 3 + 4 +
G|------------------|-----------------|-----------------|-----------------|
D|------------------|---------4-------|-----------------|-----2-------4---|
A|-2-2---2---2------|-------------6---|-----------------|---2-------4-----| x2
E|-----2-------2-/6-|-6-6-6-6-------6-|-4-4-2-4---4-2-4-|-0-------2-------|

  1 + 2 + 3 + 4 +
G|------------------|-------|-------|-------|
D|------------------|-------|-------|-------|
A|------------------|-------|-------|-------| x2
E|-7\---------------|-------|-------|-------|

G|-----------|
D|-----------|
A|-----------|
E|-/7\-------|


************************************

| / Slide up
| \ Slide down

************************************

Almost there ...

Sign in to get your own page with links to favourite songs and more. You are just one click away...

Login with Facebook Login with Google