Log in

One click and you are in

Login with Facebook Login with Google

Why sign up and log in

Guitar Tabs Explorer
Misc Soundtrack tabs for Lord of the rings

Guitar tabs with lyrics

Original Music by: Howard Shore
Tabbed by: Shaughnessy C. McDaniel


|------------------------------|
|------------------------------|
|------------------------------|
|------------------------------|
|------------------------------|
|3-1-1-3-5-7-8-7-5-3-5-7-5-3-2-|

This is the basic theme to The Lord of the Rings. Repeats quite a few times.





Here is a Lord of the Rings tab.
This is my first tab.
Standard Tuning (EADGBE)
This is in Concert Bb, but it sounds the same.
Listen to the music to understand the parts of the song.
This song is really easy to play.

p = pull-off


[Riff #1]
|-----------------------------------------------------------------|
|-----------------------------------------------------------------|
|--0-2-3----------2-0----------2-0-2----------------------------|
|-----------------------3-----------------------------------------|
|-----------------------------------------------------------------|
|-----------------------------------------------------------------|

Now for this part there are two ways this can be played, either high or
low.

This is the low part
[Low Riff][Riff #2]
|---1---0--------------------------------------------------------|
|-----------3----1---11---3-------------------------------------|
|-----------------------------------------------------------------|
|-----------------------------------------------------------------|
|-----------------------------------------------------------------|
|-----------------------------------------------------------------|

This is the high part
[High Riff][Riff #2]
|----13---12-----------------------------------------------------|
|--------------15----13---1313---15----------------------------|
|-----------------------------------------------------------------|
|-----------------------------------------------------------------|
|-----------------------------------------------------------------|
|-----------------------------------------------------------------|

[Riff #3]
|-----------------------------------------------------------------|
|-----------------------------------------------------------------|
|----0-2-3------2-3-5------3-5-7-------------------------------|
|-----------------------------------------------------------------|
|-----------------------------------------------------------------|
|-----------------------------------------------------------------|

Here is the French Horn solo that goes along with it
|---------------------------------------------------------12---15--14-----|
|----------12----15----12---------------------12--15------------------15|
|---12-14--------------------14---12-------------------------------------|
|---------------------------------------------------------------------------|
|---------------------------------------------------------------------------|
|---------------------------------------------------------------------------|

|-----------------------------------------------------------------|
|---12--13p12-------------------12----15----12----------------|
|-----------------14------12-14--------------------14---12-----|
|-----------------------------------------------------------------|
|-----------------------------------------------------------------|
|-----------------------------------------------------------------|

|------------12--------------------------------------------------|
|---12--15---------15--12--------------------------------------|
|-----------------------------14----12--------------------------|
|-----------------------------------------------------------------|
|-----------------------------------------------------------------|
|-----------------------------------------------------------------|
                  Rit.


Song Order:
    [Riff #1]
    [Riff #2]
    [Riff #3]
    [Solo]

Other versions of Lord Of The Rings

Lord of the rings - the bridge of khazad-dumTabs

Almost there ...

Sign in to get your own page with links to favourite songs and more. You are just one click away...

Login with Facebook Login with Google