Log in

One click and you are in

Login with Facebook Login with Google

Why sign up and log in

Guitar Tabs Explorer
Misc Soundtrack guitar tabs for Lady bird - lady bird kiss

Lady Bird - Lady Bird Kiss tab by Misc Soundtrack

Misc Soundtrack guitar tabs for Lady bird - lady bird kiss

Guitar tabs with lyrics

Composer - Jon Brion

Theme from the 2017 movie Lady Bird. You might remember it best as the theme playing during the scene where
Saoirse Ronan and Lucas Hedges kiss for the first time.
   A chord diagramA majorA                    A chord diagramAmaj7Amaj7          A chord diagramE MajorE     A chord diagramA majorA                    A chord diagramAmaj7Amaj7
e|----------------0---|--------------------|----------------0---|----------------------|
B|-2----2----2--------|-2----2----2----0---|-2----2----2--------|-2----2----2----2-----|
G|-2----2----2--------|-1----1----1----1---|-2----2----2--------|-1----1----1----1-----|
D|-2----2----2--------|-2----2----2----2---|-2----2----2--------|-2----2----2----2-----|
A|-0----0----0----0---|-0----0----0--------|-0----0----0----0---|-0----0----0----0-----|
E|--------------------|--------------------|--------------------|----------------------|

   A chord diagramB minorBm   A chord diagramE minor 7Em7              A chord diagramBbdimBbdim            Ebmaj7#5          A chord diagramE MajorE
e|---------------------|----------------|----------------|--------------------------|
B|-3----3----3----5/3--|-2----2----2----|-3----3----3----|-0----0----0----0---------|
G|-4----0----0---------|-3----3----3----|-4----4----4----|-1----1----1----1---------|
D|---------------------|----------------|----------------|-2----2----2----2---------|
A|-2----2----2---------|-1----1----1----|-5----5----5----|-2----2----2----2---------|
E|---------------------|----------------|----------------|--------------------------|

   A chord diagramEm6Em6                  A chord diagramF#F#                    Ebmaj7#5               A chord diagramE MajorE
e|-------------------|---------------------|----------------------|----------------------|
B|-2----2----2----2--|---------------------|---3----3----3----3---|--0----0----0----0----|
G|-0----0----0----0--|--3----3----3----3---|---4----4----4----4---|--1----1----1----1----|
D|-2----2----2----2--|--4----4----4----4---|----------------------|--2----2----2----2----|
A|-2----2----2----2--|---------------------|---5----5----5----5---|--2----2----2----2----|
E|-------------------|--2----2----2----2---|----------------------|----------------------|

   A chord diagramA majorA                    A chord diagramC#m7C#m7                  A chord diagramB minorBm                  A chord diagramBbdimBbdim
e|----------------0---|--------------------|--------------------|----------------------|
B|-2----2----2--------|-5----5----5----5---|-3----3----3----3---|-2----2----2----2-----|
G|-2----2----2--------|-4----4----4----4---|-4----4----4----4---|-3----3----3----3-----|
D|-2----2----2--------|--------------------|--------------------|----------------------|
A|-0----0----0----0---|-4----4----4----4---|-2----2----2----2---|-1----1----1----1-----|
E|--------------------|--------------------|--------------------|----------------------|

   Ebmaj7#5              A chord diagramE MajorE                    A chord diagramEm6Em6                 A chord diagramF#F#
e|--------------------|--------------------|--------------------|----------------------|
B|--3----3----3----3--|--0----0----0----0--|--2----2----2----2--|----------------------|
G|--4----4----4----4--|--1----1----1----1--|--0----0----0----0--|--3----3----3----3----|
D|--------------------|--2----2----2----2--|--2----2----2----2--|--4----4----4----4----|
A|--5----5----5----5--|--2----2----2----2--|--2----2----2----2--|----------------------|
E|--------------------|--------------------|--------------------|--2----2----2----2----|

    Ebmaj7#5             A chord diagramE MajorE   A chord diagramEsus4Esus4    A chord diagramE minorEm   A chord diagramE MajorE    A chord diagramA/EA/E   A chord diagramBbdimBbdim     A chord diagramA majorA         A chord diagramBbdimBbdim     A chord diagramA majorA
e|--------------------|-----------------------|--------------|---------------------------------|
B|--3----3----3----3--|---------------0-------|--------------|---------------------------------|
G|--4----4----4----4--|--1----2-------0----1--|--2----3---3--|--2----2----3----3----2----2-----|
D|--------------------|--2----2------------2--|--2----2---2--|--2----2----2----2----2----2-----|
A|--5----5----5----5--|--2----2-------2----2--|-------1---1--|--0----0----1----1----0----0-----|
E|--------------------|-----------------------|--0-----------|---------------------------------|


solo:

    A chord diagramDmDm             A chord diagramDmDm          A chord diagramA/EA/E    A chord diagramBbdimBbdim     A chord diagramA majorA       A chord diagramBbdimBbdim        A chord diagramA majorA   A chord diagramDmDm      A chord diagramG minorGm
e|--1----1----1--|-----------|--5------6----|--(5)5----(6)6----|----(5)5/10---|--8p6--------------|
B|--3----3----3--|-1-3p1-----|--------------|------------------|--------------|------8------------|
G|--2----2----2--|--------3--|--------------|------------------|--------------|-------------------|
D|--0----0----0--|-----------|--------------|------------------|--------------|-------------------|
A|---------------|-----------|--------------|------------------|--------------|-------------------|
E|---------------|-----------|--------------|------------------|--------------|-------------------|
    A chord diagramA/EA/E     A chord diagramBbdimBbdim     A chord diagramA majorA        A chord diagramBbdimBbdim         A chord diagramA majorA   A chord diagramDmDm     A chord diagramBbdimBbdim    A chord diagramDmDm     A chord diagramG minorGm            A chord diagramA majorA   A chord diagramE MajorE
e|--5-------6---|----(5)5------(6)6---|-----(5)5/13--|--12-13p12-10--|------------|-----------------|
B|--------------|---------------------|--------------|---------------|--13-12-13--|---2---0---------|
G|--------------|---------------------|--------------|---------------|------------|---2---1---------|
D|--------------|---------------------|--------------|---------------|------------|---2---2---------|
A|--------------|---------------------|--------------|---------------|------------|---0---2---------|
E|--------------|---------------------|--------------|---------------|------------|-----------------|


outro:
   A chord diagramA majorA                    A chord diagramC#m7C#m7                  A chord diagramB minorBm                  A chord diagramBbdimBbdim
e|----------------0---|--------------------|--------------------|----------------------|
B|-2----2----2--------|-5----5----5----5---|-3----3----3----3---|-2----2----2----2-----|
G|-2----2----2--------|-4----4----4----4---|-4----4----4----4---|-3----3----3---3------|
D|-2----2----2--------|--------------------|--------------------|----------------------|
A|-0----0----0----0---|-4----4----4----4---|-2----2----2----2---|-1----1----1----1-----|
E|--------------------|--------------------|--------------------|----------------------|


   Ebmaj7#5              A chord diagramE MajorE                    A chord diagramEm6Em6                 A chord diagramF#F#
e|--------------------|--------------------|--------------------|----------------------|
B|--3----3----3----3--|--0----0----0----0--|--2----2----2----2--|----------------------|
G|--4----4----4----4--|--1----1----1----1--|--0----0----0----0--|--3----3----3----3----|
D|--------------------|--2----2----2----2--|--2----2----2----2--|--4----4----4----4----|
A|--5----5----5----5--|--2----2----2----2--|--2----2----2----2--|----------------------|
E|--------------------|--------------------|--------------------|--2----2----2----2----|

    Ebmaj7#5             A chord diagramE MajorE
e|--------------------|-----------------------|
B|--3----3----3----3--|--0--------------------|
G|--4----4----4----4--|--1--------------------|
D|--------------------|--2--------------------|
A|--5----5----5----5--|--2--------------------|
E|--------------------|-----------------------|


************************************

| /    Slide up
| (n)  Ghost note
| p    Pull-off


************************************

Almost there ...

Sign in to get your own page with links to favourite songs and more. You are just one click away...

Login with Facebook Login with Google