Log in

One click and you are in

Login with Facebook Login with Google

Why sign up and log in

Guitar Tabs Explorer
Misc Soundtrack tabs for James bond themes

Guitar tabs

Album: The Best Of Bond: James Bond
Tabbed By: Lee Thomas Robson <The_Axis@gmx.co.uk> 13/12/2002

James Bond Theme

Intro:
e|----------------------|----------------------|
b|----------------------|----------------------|
g|-4-----5-----6-----5--|-4-----5-----6-----5--|
d|-x-----x-----x-----x--|-x-----x-----x-----x--|
a|-2-----3-----4-----3--|-2-----3-----4-----3--|
e|----0-----0-----0-----|----0-----0-----0-----|
Riff:
e|----------------|----------------|
b|----------------|----------------|
g|----------------|----------------|
d|----------------|----------------|
a|----------------|----------------|
e|-0-222-2--0-0-0-|-0-333-3--2-2-2-|

e|----------------|----------------|
b|----------------|----------------|
g|----------------|----------------|
d|----------------|----------------|
a|----------------|----------------|
e|-0-222-2--0-0-0-|-0-333-3--2-2-2-|

e|----------------|---------------------------------|
b|----------------|---------------------------------|
g|----------------|---------------------------------|
d|----------------|----------------1-0--------------|
a|----------------|------------------------2-0-2----|
e|-0-222-2--0-0-0-|-0-333-3--2-1-0------------------|

Solo:                                  1st     2nd
e|------------------------------------|-------|-------|
b|------------------------------------|-------|-------|
g|-------8-7--------3--4--------------|-------|-------|
d|---5-----------5----------5h7p5\4---|---2---|---1-2-|
a|-7----------------------------------|-2---4-|-2-----|
e|------------------------------------|-------|-------|
                                       1st     2nd
e|-------11-10------6--7--------------|-------|-------|
b|---8-----------8----------8h10p8\7--|-0-5---|-0-4-5-|
g|-9----------------------------------|-----6-|-------|
d|------------------------------------|-------|-------|
a|------------------------------------|-------|-------|
e|------------------------------------|-------|-------|

e|----------------------------------------|
b|----------------------------------------|
g|-9-9---9--11-9-11----12-12---12-11-9-11-|
d|-x-x---x--x--x--x-----x--x----x-x--x-x--|
a|-7-7---7--9--7--9----10-10---10-9--7-9--|
e|----------------------------------------|

e|-0-0-------0-0------0-0--0-0-0--|
b|-0-0-------0-0------0-0--0-0-0--|
g|------4---------4---------------|
d|------x---------x---------------|
a|------2---------2---------------|
e|--------------------------------|

Whenever I hear that part in a 007 game,
it usually sounds like this:
e|-2-0-------2-0------2-2--2-2-0--|
b|-0-0-------0-0------0-0--0-0-0--|
g|------4---------4---------------|
d|------x---------x---------------|
a|------2---------2---------------|
e|--------------------------------|


Ending:
e|-----------------------------------------------|
b|---------------------------------------7-------|
g|--------------------------------8-7----8-------|
d|----1-0------4-2------8-7----5---------9-------|
a|-----------2--------5------7-----------10------|
e|-0-3-----3--------7--------------------0-------|
                                         Kerrang!
Goldeneye Intro:
e|-----------| e|-----------------| e|-8--7-------|
b|-----------| b|--fast-picking---| b|-x--x-------|
g|-----------| g|-2---1---2---4---| g|-5--4-------|
d|-2---4-4-4-| d|-4---4---4---4---| d|------------|
a|-x---x-x-x-| a|-----------------| a|------------|
e|-0---2-2-2-| e|-----------------| e|------------|

Goldfinger Intro:      1st          2nd
e|-0-------0----------|-0-4/5------|------------|
b|-0-------1----------|---------5\-|------------|
g|-1-------0----------|------------|---0h1------|
d|-2-------2----------|------------|-2-------2\-|
a|-2-------3----------|------------|------------|
e|-0------------------|------------|------------|

Licence To Kill Intro: 1st         2nd
e|-F#------D----------|-----------|-----------|
b|--------------------|---------0-|-2-0-------|
g|-3------------------|-----1-2---|-----2-1---|
d|-4-------4----------|-2-4-------|---------4-|
a|-4-------5----------|-----------|-----------|
e|---------5----------|-----------|-----------|

You Only Live Twice Intro:
            e|--------------------------12----10-|
  Bass      b|-guitar-------5---3----------11----|
g|---9---7- g|----------------3-----/11----------|
d|-----8--- d|---2---0---/4----------------------|
a|-9------- a|-----1-----------------------------|
e|--------- e|-2---------------------------------|

e|-/19-18h19-18-16h18-16---14-|-17-16h17-16-14h16-14---12-|
b|----------------------------|---------------------------|
g|----------------------------|---------------------------|
d|----------------------------|---------------------------|
a|----------------------------|---------------------------|
e|----------------------------|---------------------------|
                                        1st| extension during verse
e|-7-6h7-6-4h6-4--2-|-5-4h5-4-2h4-2-0--|-2-|-3-2h3-2-0h2-0---------0
b|------------------|------------------|---|----------------3--2-3--
g|------------------|------------------|---|------------------------
d|------------------|------------------|---|------------------------
a|------------------|------------------|---|------------------------
e|------------------|------------------|---|------------------------

View To A chord diagramA augmentedA Kill Intro:                              2nd
e|-8-----8--8--10-----10-10--11-----11-11--13--13-|-11-13-11-13-|
b|-8-----8--8--12-----12-12--11-----11-11--13--13-|-11-13-11-13-|
g|-8-----8--8--12-----12-12--12-----12-12--14--14-|-12-14-12-14-|
d|------------------------------------------------|-------------|
a|-Cm----------G-------------Eb------------F------|-------------|
e|------------------------------------------------|-------------|

View To A chord diagramA augmentedA Kill Chords:

Verse  Cm, G/b, Bb, A chord diagramFF

Bridge Ab, Ebm7, B, A chord diagramC#C#

Chorus E, G#m7, C#m7, A chord diagramD#m7D#m7

Almost there ...

Sign in to get your own page with links to favourite songs and more. You are just one click away...

Login with Facebook Login with Google