Log in

One click and you are in

Login with Facebook Login with Google

Why sign up and log in

Guitar Tabs Explorer
Misc Soundtrack tabs for Its a small world theme

Its A Small World Theme tab - Misc Soundtrack

Misc Soundtrack tabs for Its a small world theme

Guitar tabs

ITs a small world, for novice

  Play it happily :)

 Std Tuning
e--------------------------------------------|
B--------------------------------------------|
G--------------2-----0-----------------------|
D-----------------3------3----3----2----2----|
A---0---2---3--------------------------------|
E--------------------------------------------|

  ITs a world of laugh-ter, a world of tears.


e--------------------------------------------|
B--------------------------------------------|
G--------------0-----------------------------|
D------------------2---3---2---0-------------|
A--0---2---3----------------------3---3------|
E--------------------------------------------|

  Its a world of hopes and a world of fears.


e-----------------------------------------------------|
B-----------------------------------------------------|
G--------------0---2---0---------------0----2----3----|
D-----------3--------------3------0-------------------|
A--0---2--3-------------------------------------------|
E-----------------------------------------------------|

There's so much that we share that it's time were aware

e--------------------------------------------|
B--------------------------------------------|
G---2--0--------3------2--0------------------|
D----------------------------3---------------|
A----------3---------------------------------|
E--------------------------------------------|

   It's a small world after all______________


e--------------------------------------------------------|
B--------------------------------------------------------|
G--------2-----0----0----0------0--0--3---0--2-----2---2-|
D--3--3-----3--------------------------------------------|
A--------------------------------------------------------|
E--------------------------------------------------------|
 it's a small world after all,its a small world after all


e----------------------------------------------------|
B-------1--------------------------------------------|
G-2--2----2--3---3---3-------2--0--------------------|
D-------------------------------------------2-----3--|
A------------------------------------3---------------|
E----------------------------------------------------|

 Its a small world after all, its a small small world.


                       There it is, hope you like it, chris

Almost there ...

Sign in to get your own page with links to favourite songs and more. You are just one click away...

Login with Facebook Login with Google