Log in

One click and you are in

Login with Facebook Login with Google

Why sign up and log in

Guitar Tabs Explorer
Misc Soundtrack tabs for Im forrest

Guitar tabs

submitted by: Justin Leister

This is the intro to the movie Forrest Gump.
With a little practice, its totally right.
I tried to space for timing.  it's sort of
timed right.  listen to the beginning of
the movie (when the feather drops by his shoe).

E-------------------3-------|-------0-0-----0-|
B--0--2--3-3--0--3-----3--0-|-1--3-------1----|
G---------------------------|-----------------|
D---------------------------|-----------------|
A---------------------------|-----------------|
E---------------------------|-----------------|

E--------0-0-----0--5--2----|------------3----|
B--1--3-------1-----------3-|-0--2--3-3-----3-|
G---------------------------|-----------------|
D---------------------------|-----------------|
A---------------------------|-----------------|
E---------------------------|-----------------|

E--0--2--3-3--0--3--0--3--0-|-------0-0-----0-|
B---------------------------|-1--3-------1----|
G---------------------------|-----------------|
D---------------------------|-----------------|
A---------------------------|-----------------|
E---------------------------|-----------------|

E--------0-0----------------|-----------------|
B--1--3----------0-2--------|-----------------|
G-------------2-------2--0--|-----------------|
D---------------------------|-----------------|
A---------------------------|-----------------|
E---------------------------|-----------------|

Almost there ...

Sign in to get your own page with links to favourite songs and more. You are just one click away...

Login with Facebook Login with Google