Log in

One click and you are in

Login with Facebook Login with Google

Why sign up and log in

Guitar Tabs Explorer
Misc Soundtrack bass tabs for Hamilton - burn

Bass tabs

Tuning: Standard (E A D G)


Intro:

G|---------------------------------------------------------------------------|
D|-------0---4---5---4---0-------0---4---5---4---0---------------------------|
A|---2-----------------------1-----------------------------------------------|
E|---------------------------------------------------------------------------|


G|---------------------------------------------------------------------------|
D|-------0---4---5---4---0---5---4---0---5---4---0---------------------------|
A|---2-----------------------------------------------------------------------|
E|---------------------------------------------------------------------------|



Verse:

G|-----------------------------------------------------------------------------------|
D|-----------------------------------------------------------------------------------|
A|---2-----------------2-----------5-4---2-------------------------------------------|
E|-------2---3---0-2-------2---3-----------------------------------------------------|

Sorry im not sure how this program works so i cant get the perfect timing but if you know the song you
can
figure it oit pretty easy

Almost there ...

Sign in to get your own page with links to favourite songs and more. You are just one click away...

Login with Facebook Login with Google