Log in

One click and you are in

Login with Facebook Login with Google

Why sign up and log in

Guitar Tabs Explorer
Misc Soundtrack bass tabs for Halloween theme

Bass tabs

Tabbed by: Andy
E-mail:hithat_cat1@mac.com

This my seem overwhelming but once you get it down its easy:
Standard tuning
G|-18-------18-------18----19---|
D|----16-16----16-16----16----16|
A|------------------------------|x2
E|------------------------------|

G|-17-------17-------17----18---|
D|----15-15----15-15----15----15|
A|------------------------------|x2
E|------------------------------|

G|-18-------18-------18----19---|
D|----16-16----16-16----16----16|
A|------------------------------|x2
E|------------------------------|

G|-17-------17-------17----18---|
D|----15-15----15-15----15----15|
A|------------------------------|x2
E|------------------------------|

G|-16-------16-------16----17---|
D|----14-14----14-14----14----14|
A|------------------------------|x2
E|------------------------------|

G|-15-------15-------15----16---|
D|----13-13----13-13----13----13|
A|------------------------------|x2
E|------------------------------|

G|-16-------16-------16----17---|
D|----14-14----14-14----14----14|
A|------------------------------|x2
E|------------------------------|

G|-15-------15-------15----16---|
D|----13-13----13-13----13----13|
A|------------------------------|x2
E|------------------------------|

G|------------------------------|
D|-15-------15-------15----16---|
A|----13-13----13-13----13----13|x8
E|------------------------------|
Then repeat but play last line x4 second time.

Almost there ...

Sign in to get your own page with links to favourite songs and more. You are just one click away...

Login with Facebook Login with Google