Log in

One click and you are in

Login with Facebook Login with Google

Why sign up and log in

Guitar Tabs Explorer
Misc Soundtrack guitar tabs for Grizzly man - main theme

Grizzly Man - Main Theme tab by Misc Soundtrack

Misc Soundtrack guitar tabs for Grizzly man - main theme

Intro

RICHARD THOMPSON - GRIZZLY MAN MAIN THEME

album version - GRIZZLY MAN SOUNDTRACK
____________________________________
____________________________________

Basically an Improv by Richard Thompson.

Drop A chord diagramD MajorD tuning.
____________________________________
____________________________________

e--------------------------------------------------------------------------------
b------------------7--pb(8)r7----------------------------------------------------
g-----/7-------7h9-------------9-0-7-------2p0--------2p0------7-----------------
d--------------------------------0---5----------4b(5)-----4p0----7--/12-12-12-12-
a-3/5----------------------------------------------------------------------------
d--------------------------------------------------------------------------------

e------------------------------------------------------------------------------------------------
b------------------------------------------------------------------------------------------------
g-11----12p11b(12)r11--12p11--14--14p11b(12)r11--------------------------------------------------
d-----------------------------------------------14-14p12p10-12----------------------/12-12-12-12-
a----12--------------------------------------------------------12-10-10h12b(14)r12---------------
d------------------------------------------------------------------------------------------------

e------------------------------------------------------------------------------------
b---------------------------------------------------------------------------------13-
g-----14-14----14/16b(19)-pb(17)r16-14h16p14----14-----------------------------------
d-/12-------12-------------------------------17----17------------------10h12/14------
a-------------------------------------------------------10/12-10-12/10---------------
d------------------------------------------------------------------------------------

e---------------------------------------------------------------------------------------------------
b---------------------------------------------------------------------------------------------------
g-------------------12-12-12-14-14-14-14----------------------------------------------5-7--7/9-9/12-
d-12h14-12-12p10-10-------------------------7p5h7-7p5p4b(5)---4b(5)r4-4p2p0----/5-5-5---------------
a---------------------------------------------------------------------------------------------------
d---------------------------------------------------------------------------------------------------

e-------------------------------------------------------------------12-------------------
b--------------15----15----15----15----15----15~----10-----------10----10-10----------12-
g-12/14-14-/14----14----14----14----14----14-----------pb(14)r12----------------12h14----
d----------------------------------------------------------------------------------------
a----------------------------------------------------------------------------------------
d----------------------------------------------------------------------------------------

e----------------------------------10---------------------------------------------------------------
b-pb(13)r12-10h12p10----10h12b(13)-------10------------10------------10----10-10b(12)r(10)----------
g--------------------12---------------12----11b(12)r11----11b(12)r11----11--------------------------
d------------------------------------------------------------------------------------------12p10h12-
a---------------------------------------------------------------------------------------------------
d---------------------------------------------------------------------------------------------------

e----------------------------------------------------------------------10-------------10---
b-------------------------------------------3-3----/8-8-8-8-8-8-8b(10)--------10b(12)------
g-2p0----------2p0------------0-----0-----0--------/5-5-5-5-5-5-5b(6)-----7--------------7-
d-----4p0----------4p0----0h4---2/4---2/4--------------------------------------------------
a---------3/5----------/5------------------------------------------------------------------
d------------------------------------------------------------------------------------------

e-----------------------------------------------------------------------------------------------
b-----7-8p7---------8p7-------------------------------------------------------------------------
g-7h9-------9p7h9-------9-7h9p7----7-----7-7b(9)-pb9r(7)-7b(9)r(7)-pb(9)r(7)-7/-----------------
d-------------------------------10---/10--------------------------------------------------------
a--------------------------------------------------------------------------------3/5--5-5-5-----
d-------------------------------------------------------------------------------------------2-0-

e--------------------------------------------------------------------------------------------
b-/10-10--10--10-10--------7-10---7-10---------7-7b(8)r(7)---7h8p7---7-----------------------
g-/7--7---7---7--7----7--9------9------9~----9-------------9-------9-------------------------
d----------------------------------------------------------------------10--------------------
a----------------------------------------------------------------------------3h5p3h5p3h5p3---
d------------------------------------------------------------------------------------------0-

e-------------------------------------------------------------------------------------------------
b---------------------------------10---------10h12b(13)r(12)p10----10-----------------------------
g--------------------7---------------12-------------------------12-------------12/9-----7/4---0h2-
d-pb(6)r5--2---------7-8/10----10-----------------------------------------------------------------
a------------3-3h5-------------------------------------------------------12/10------7/5-----3-----
d-------------------------------------------------------------------------------------------------

e--------------------10------10------10----------------------------------------
b-3-3-3-3-3-3-3-3-3--13b(15)-13b(15)-13b(15)--10-------------------------------
g-7-7-7-7-7-7-7-7-7---------------------------12b(14)--------------------------
d-0-0-0-0-0-0-0-0-0------------------------------------12--pb(13)r12-----10----
a---------------------------------------------------------------------10----12-
d------------------------------------------------------------------------------

e-------------------------------------
b-------------------------------------
g-----------0-------------------------
d-2p0h2-2h4---4-2h4p2p0-------------0-
a-----------------------3h5p3h5p3h5---
d-------------------------------------

e--------------------------------------------------------------------------------
b--------------------------------------------------------------------------------
g------------------------5-5/7-----7+---7-7-7--------7-7-7---7-7-9----9------9-7-
d-------------------------------7+------------0--------------------10---7-10-----
a-3h5p3h53h5p3h5p3h5-0-----------------------------------------------------------
d--------------------------------------------------------------------------------

Almost there ...

Sign in to get your own page with links to favourite songs and more. You are just one click away...

Login with Facebook Login with Google