Log in

One click and you are in

Login with Facebook Login with Google

Why sign up and log in

Guitar Tabs Explorer
Misc Soundtrack guitar tabs for Grasswalk theme

Guitar tabs

A chord diagramE MajorE||-----------0--5----------|-----------0--3--2--1--0--|--5--4--0--3--2-----1--0--|
A chord diagramBB||--------4----------------|--------4-----------0-----|--4-----------1--3--------|
A chord diagramG+G||-----------2-------------|-----------2--------------|--------------------------|
A chord diagramD MajorD||--------2----------------|--------2-----------------|--------------3-----------|
A chord diagramA augmentedA||--0----------------------|--0-----------------------|--------3-----------3-----|
A chord diagramD MajorD||--------------------2----|--------------------2-----|--3-----------------------|
  Q    Q    A chord diagramE MajorE  A chord diagramE MajorE  A chord diagramE MajorE  A chord diagramE MajorE     A chord diagramE MajorE  A chord diagramE MajorE  A chord diagramE MajorE  A chord diagramE MajorE  A chord diagramE MajorE  A chord diagramE MajorE  Q       A chord diagramE MajorE  A chord diagramE MajorE  A chord diagramE MajorE  A chord diagramE MajorE  A chord diagramE MajorE  A chord diagramE MajorE  A chord diagramE MajorE  A chord diagramE MajorE
------------------------|-----------0--5----------|-----------0--3--2--1--0--|
--1---------------------|--------4----------------|--------4-----------0-----|
------------------------|-----------2-------------|-----------2--------------|
--3---------------------|--------2----------------|--------2-----------------|
------------------------|--0----------------------|--0-----------------------|
--3---------3--4--5--6--|--------------------2----|--------------------2-----|


  A chord diagramE MajorE  A chord diagramE MajorE  A chord diagramE MajorE  A chord diagramE MajorE  A chord diagramE MajorE  A chord diagramE MajorE  A chord diagramE MajorE  A chord diagramE MajorE     Q    Q.     A chord diagramE MajorE  A chord diagramE MajorE  A chord diagramE MajorE     A chord diagramE MajorE  A chord diagramE MajorE  A chord diagramE MajorE  A chord diagramE MajorE  A chord diagramE MajorE  A chord diagramE MajorE  A chord diagramE MajorE  A chord diagramE MajorE
--5--4--0--3--2-----1--0--|-----------------------|--------------------0--1--|
--4-----------1--3--------|--1--------------------|--3-----------------------|
--------------------------|-----------------------|--2-----------------------|
--------------3-----------|--3--------------------|--------------0-----------|
--------3-----------3-----|-----------------------|--------0-----------------|
--3-----------------------|--3-----------3--2--1--|--0-----------------0--0--|


  A chord diagramE MajorE  A chord diagramE MajorE  A chord diagramE MajorE  A chord diagramE MajorE  A chord diagramE MajorE  A chord diagramE MajorE  A chord diagramE MajorE  A chord diagramE MajorE     A chord diagramE MajorE  A chord diagramE MajorE  A chord diagramE MajorE  A chord diagramE MajorE  A chord diagramE MajorE  A chord diagramE MajorE  A chord diagramE MajorE  A chord diagramE MajorE     A chord diagramE MajorE  A chord diagramE MajorE  A chord diagramE MajorE  A chord diagramE MajorE  A chord diagramE MajorE  A chord diagramE MajorE  A chord diagramE MajorE  A chord diagramE MajorE
--0-----------0-----------|--------------0-----------|--5-----------------------|
--0-----0-----0-----3-----|--1-----------0-----------|--5-----------------------|
--------------1-----4-----|--2-----------------------|--------------------------|
--------------2--0--------|--------2-----------2-----|--------0-----------0-----|
--------2-----------2-----|--3-----------2-----------|--------0-----------0-----|
--2-----------------------|--------------------------|--0-----------0-----------|


  A chord diagramE MajorE  A chord diagramE MajorE  A chord diagramE MajorE   A chord diagramE MajorE  A chord diagramE MajorE  A chord diagramE MajorE   Q       A chord diagramE MajorE  A chord diagramE MajorE  A chord diagramE MajorE  A chord diagramE MajorE  A chord diagramE MajorE  A chord diagramE MajorE   A chord diagramE MajorE  A chord diagramE MajorE     H        H           H        Q    Q
--5--4--5------8-----------|--5--4--5--7--8-----10-----|--7-----------------|--L------------------|
-----------12--------------|---------------------------|--------------------|-----------0----5----|
---------------------------|---------------------------|--------------------|---------------------|
---------------------------|--------------0------------|--------------------|--6------------------|
---------------8-----------|-----------0---------------|-----------7--------|---------------------|
--3--------10--------10----|--0------------------0-----|--2-----------------|---------------------|

  Q    A chord diagramE MajorE  A chord diagramE MajorE  Q    A chord diagramE MajorE  A chord diagramE MajorE     Q    A chord diagramE MajorE  A chord diagramE MajorE  A chord diagramE MajorE  A chord diagramE MajorE  A chord diagramE MajorE  A chord diagramE MajorE     Q    A chord diagramE MajorE  A chord diagramE MajorE  Q    A chord diagramE MajorE  A chord diagramE MajorE     Q    Q    Q    Q
------------------------|-------------------------|------------------------|----------------------|
----------0--1----1--0--|----------0--1--3--1--0--|----------0--1----1--0--|------------0---------|
--2---------------------|--2----------------------|--2----------2----------|--2-------------------|
--2----------2----------|--2----------2-----------|------------------------|------------0---------|
--0----------0----------|--0----------0-----------|-------3----------3-----|-------3---------5----|
-------2----------2-----|-------2-----------2-----|--3----------3----------|--3---------5---------|


  Q    A chord diagramE MajorE  A chord diagramE MajorE  Q    A chord diagramE MajorE  A chord diagramE MajorE     Q    A chord diagramE MajorE  A chord diagramE MajorE  A chord diagramE MajorE  A chord diagramE MajorE  A chord diagramE MajorE  A chord diagramE MajorE     Q    A chord diagramE MajorE  A chord diagramE MajorE  Q    A chord diagramE MajorE  A chord diagramE MajorE     Q    Q    Q    Q
------------------------|-------------------------|------------------------|----------------------|
----------0--1----1--0--|----------0--1--3--1--0--|----------0--1----1--0--|----------------------|
--2---------------------|--2----------------------|--2----------2----------|--2---------0---------|
--2----------2----------|--2----------2-----------|------------------------|------------0---------|
--0----------0----------|--0----------0-----------|-------3----------3-----|-------3---------5----|
-------2----------2-----|-------2-----------2-----|--3----------3----------|--3---------5---------|


  A chord diagramE MajorE  A chord diagramE MajorE  A chord diagramE MajorE  A chord diagramE MajorE  A chord diagramE MajorE  A chord diagramE MajorE  A chord diagramE MajorE  A chord diagramE MajorE     Q    Q    A chord diagramE MajorE  A chord diagramE MajorE  A chord diagramE MajorE  A chord diagramE MajorE     A chord diagramE MajorE  A chord diagramE MajorE  A chord diagramE MajorE  A chord diagramE MajorE  A chord diagramE MajorE  A chord diagramE MajorE  A chord diagramE MajorE  A chord diagramE MajorE
--5-----4-----3-----2-----|--0---------------------|--5-----4-----3-----2-----|
-----------5--------------|------------------------|-----------5--------------|
--2-----------2-----------|------------------------|--------------2-----------|
-----------2--------------|------------------------|-----------2--------------|
--0-----------------------|--0---------------------|--0-----------------------|
--------------------2-----|------------2--3--4--5--|--------------------2-----|


  Q    Q    A chord diagramE MajorE  A chord diagramE MajorE  A chord diagramE MajorE  A chord diagramE MajorE     Q    A chord diagramE MajorE  A chord diagramE MajorE  Q    A chord diagramE MajorE  A chord diagramE MajorE     A chord diagramE MajorE  A chord diagramE MajorE  A chord diagramE MajorE  A chord diagramE MajorE  Q    A chord diagramE MajorE  A chord diagramE MajorE
--0---------------------|-------0----------0-----|--------0----------0-----|
------------------------|-------1----------1-----|--------1--1-------1-----|
------------------------|--2---------------------|--2--1--2----------------|
------------------------|-------------2----------|--------------2----------|
--0---------------------|--0---------------------|--0----------------------|
------------2--3--4--5--|-------------2----------|--------------2----------|


  A chord diagramE MajorE  A chord diagramE MajorE  A chord diagramE MajorE  A chord diagramE MajorE  Q    A chord diagramE MajorE  A chord diagramE MajorE     Q    Q    Q    Q       Q    A chord diagramE MajorE  A chord diagramE MajorE  Q    A chord diagramE MajorE  A chord diagramE MajorE     A chord diagramE MajorE  A chord diagramE MajorE  A chord diagramE MajorE  A chord diagramE MajorE  Q    A chord diagramE MajorE  A chord diagramE MajorE
--------0----------0-----|----------------------|-------0----------3-----|-----------0--1----------|
--------1--0--1----1-----|--3----1----0---------|-------1-----0----3-----|--1--0--1----------3-----|
--2--1--2-----0----------|--2----2--------------|--2----------0----------|--0----------------------|
-------------------------|--0---------2---------|------------------------|--------2----------3-----|
--0-----------3----------|------------2---------|--0---------------------|--3----------------------|
-------------------------|----------------------|-------------5----------|--------------3----------|


  Q    A chord diagramE MajorE  A chord diagramE MajorE  Q    Q       Q    Q    A chord diagramE MajorE  A chord diagramE MajorE  A chord diagramE MajorE  A chord diagramE MajorE     Q    A chord diagramE MajorE  A chord diagramE MajorE  Q    A chord diagramE MajorE  A chord diagramE MajorE     A chord diagramE MajorE  A chord diagramE MajorE  A chord diagramE MajorE  A chord diagramE MajorE  Q    A chord diagramE MajorE  A chord diagramE MajorE
--0--------------------|------------0-----------|-------0----------0-----|--------0----------0-----|
-------1-----0----1----|---------------3--1--0--|-------1----------1-----|--------1--1-------1-----|
-------0--2-------1----|--2---------------------|--2---------------------|--2--1--2----------------|
-----------------------|--2---------------------|-------------2----------|--------------2----------|
-------------2---------|--0---------------------|--0-------0-------------|--0--------0-------------|
--2--------------------|------------------------|-------------2-------2--|--------------2-------2--|


  A chord diagramE MajorE  A chord diagramE MajorE  A chord diagramE MajorE  A chord diagramE MajorE  Q    A chord diagramE MajorE  A chord diagramE MajorE     Q    A chord diagramE MajorE  A chord diagramE MajorE  Q    Q       Q    A chord diagramE MajorE  A chord diagramE MajorE  Q    A chord diagramE MajorE  A chord diagramE MajorE
--------0----------0-----|-----------------------|-------0----------3-----|
--------1--0--1----1-----|--3----1-----0---------|-------1-----0----3-----|
--2--1--2-----0----------|--2----2---------------|--2----------0----------|
-------------------------|--0-------0--2---------|------------------------|
--0--------0--3-------3--|-------------2---------|--0-------0-------------|
-------------------------|------------------2----|-------------5-------5--|


  A chord diagramE MajorE  A chord diagramE MajorE  A chord diagramE MajorE  A chord diagramE MajorE  Q    A chord diagramE MajorE  A chord diagramE MajorE     Q    A chord diagramE MajorE  A chord diagramE MajorE  Q    A chord diagramE MajorE  A chord diagramE MajorE     Q    Q    A chord diagramE MajorE  A chord diagramE MajorE  A chord diagramE MajorE  A chord diagramE MajorE     Q    A chord diagramE MajorE  A chord diagramE MajorE  Q    Q
-----------0--1----------|--0---------------------|------------0-----------|-------------0---------|
--1--0--1----------3-----|-------1-----0----1-----|---------------3--1--0--|----------1--0----6----|
--0----------------------|-------0--2-------1-----|--2---------------------|-------2----------4----|
--------2----------3-----|------------------------|--2---------------------|--2--------------------|
--3--------3-------------|-------------2-------2--|--0---------------------|--0--------------------|
--------------3-------3--|--2-------2-------------|-------2----------------|-------------2---------|


  A chord diagramE MajorE  A chord diagramE MajorE  A chord diagramE MajorE  A chord diagramE MajorE  Q    A chord diagramE MajorE  A chord diagramE MajorE     A chord diagramE MajorE  A chord diagramE MajorE  A chord diagramE MajorE  A chord diagramE MajorE  A chord diagramE MajorE  A chord diagramE MajorE  A chord diagramE MajorE  A chord diagramE MajorE     A chord diagramE MajorE  A chord diagramE MajorE  A chord diagramE MajorE  A chord diagramE MajorE  Q    Q
--0-------------------0--|--5--4--------3--0--------|------------------------|
-----------1-------------|--5-----5-----1-----1-----|--3-----3--1--0---------|
--------------2----2-----|--------------------------|-----2------------------|
--7----------------------|--------------------2-----|--0-----------2---------|
--0-----0--3-------------|--0-----0--2--3-----------|--------3-----2---------|
-----6--------2----------|-----6--------------------|------------------------|


                                                   ^
  A chord diagramE MajorE  A chord diagramE MajorE  Q    Q    Q       A chord diagramE MajorE  A chord diagramE MajorE  A chord diagramE MajorE  A chord diagramE MajorE  Q    Q       A chord diagramE MajorE  A chord diagramE MajorE  A chord diagramE MajorE  A chord diagramE MajorE  A chord diagramE MajorE  A chord diagramE MajorE  A chord diagramE MajorE  A chord diagramE MajorE
-----------------------|------------------------|--0-----------------------|
-----------------------|--------------1----3----|--0-----------------------|
--------2----0---------|--------2---------------|--2-----------------------|
--1--2-------0----3----|--2--------2--3---------|--2-----------------------|
--0--------------------|--3--2--3---------------|--------3--0--2-----3-----|
-------------5---------|------------------------|--------------------------|


  A chord diagramE MajorE  A chord diagramE MajorE  A chord diagramE MajorE  A chord diagramE MajorE  A chord diagramE MajorE  A chord diagramE MajorE  A chord diagramE MajorE  A chord diagramE MajorE     A chord diagramE MajorE  A chord diagramE MajorE  A chord diagramE MajorE  A chord diagramE MajorE  A chord diagramE MajorE  A chord diagramE MajorE  A chord diagramE MajorE  A chord diagramE MajorE     A chord diagramE MajorE  A chord diagramE MajorE  A chord diagramE MajorE  A chord diagramE MajorE  A chord diagramE MajorE  A chord diagramE MajorE  A chord diagramE MajorE  A chord diagramE MajorE
--0-----------0-----------|--1-----------1-----------|--0-----------0-----------|
-----1-----------1--------|-----3-----------3--------|-----1-----------1--------|
--------2-----------2-----|--------2-----------2-----|--------2-----------2-----|
-----------2-----------2--|-----------3-----------3--|-----------2-----------2--|
--0-----------------------|--------------------------|--------------------------|
--------------------------|--------------------------|--------------------------|


  A chord diagramE MajorE  A chord diagramE MajorE  A chord diagramE MajorE  A chord diagramE MajorE  A chord diagramE MajorE  A chord diagramE MajorE  A chord diagramE MajorE  A chord diagramE MajorE     A chord diagramE MajorE  A chord diagramE MajorE  A chord diagramE MajorE  A chord diagramE MajorE  A chord diagramE MajorE  A chord diagramE MajorE  A chord diagramE MajorE  A chord diagramE MajorE     A chord diagramE MajorE  A chord diagramE MajorE  A chord diagramE MajorE  A chord diagramE MajorE  A chord diagramE MajorE  A chord diagramE MajorE  A chord diagramE MajorE  A chord diagramE MajorE
--1-----------1-----------|--0-----------0-----------|--1-----------1-----------|
-----3-----------3--------|-----1-----------1--------|-----3-----------3--------|
--------2-----------2-----|--------2-----------2-----|--------2-----------2-----|
-----------3-----------3--|--------------------------|--------------------------|
--------------------------|--0--------0-----------0--|--2--------2-----------2--|
--------------------------|--------------------------|--------------------------|


  A chord diagramE MajorE  A chord diagramE MajorE  A chord diagramE MajorE  A chord diagramE MajorE  A chord diagramE MajorE  A chord diagramE MajorE  A chord diagramE MajorE  A chord diagramE MajorE     A chord diagramE MajorE  A chord diagramE MajorE  A chord diagramE MajorE  A chord diagramE MajorE  A chord diagramE MajorE  A chord diagramE MajorE  A chord diagramE MajorE  A chord diagramE MajorE     A chord diagramE MajorE  A chord diagramE MajorE  A chord diagramE MajorE  A chord diagramE MajorE  A chord diagramE MajorE  A chord diagramE MajorE  A chord diagramE MajorE  A chord diagramE MajorE
--0-----------0-----------|--1-----------1-----------|--------------------------|
-----1-----------1--------|-----3-----------3--------|--------1--------1--------|
--------2-----------2-----|--------2-----------2-----|-----2--------2-----------|
--------------------------|--0--------0-----------0--|--2--------2--------2-----|
--3--------3-----------3--|--------------------------|--0-----------------L--0--|
--------------------------|--------------------------|--------------------------|


  A chord diagramE MajorE  A chord diagramE MajorE  A chord diagramE MajorE  A chord diagramE MajorE  A chord diagramE MajorE  A chord diagramE MajorE  A chord diagramE MajorE  A chord diagramE MajorE     A chord diagramE MajorE  A chord diagramE MajorE  A chord diagramE MajorE  A chord diagramE MajorE  A chord diagramE MajorE  A chord diagramE MajorE  A chord diagramE MajorE  A chord diagramE MajorE     A chord diagramE MajorE  A chord diagramE MajorE  A chord diagramE MajorE  A chord diagramE MajorE  A chord diagramE MajorE  A chord diagramE MajorE  A chord diagramE MajorE  A chord diagramE MajorE
--------------------------|--------0--------0--------|--------5--------5--------|
--------3--------3--------|-----1--------1-----------|-----3--------3-----------|
-----2--------2--------5--|--2--------2--------2-----|--2--------2--------2-----|
--3--------3--------3-----|--------------------------|--0-----------------L--0--|
--2-----------------L--2--|--3-----------------L--3--|--------------------------|
--------------------------|--------------------------|--------------------------|


  A chord diagramE MajorE  A chord diagramE MajorE  A chord diagramE MajorE  A chord diagramE MajorE  A chord diagramE MajorE  A chord diagramE MajorE  A chord diagramE MajorE  A chord diagramE MajorE     A chord diagramE MajorE  A chord diagramE MajorE  A chord diagramE MajorE  A chord diagramE MajorE  A chord diagramE MajorE  A chord diagramE MajorE  A chord diagramE MajorE  A chord diagramE MajorE     A chord diagramE MajorE  A chord diagramE MajorE  A chord diagramE MajorE  A chord diagramE MajorE  A chord diagramE MajorE  A chord diagramE MajorE  A chord diagramE MajorE  A chord diagramE MajorE
--------------------------|--------------------------|--------0-----------0-----|
--------1-----------1-----|--------3-----------3-----|-----1-----------1--------|
-----2-----------2--------|-----2-----------2-----5--|--2-----------2-----------|
--2-----------2-----------|--3-----------3-----------|--------------------------|
--0--------0-----------0--|--2--------2-----------2--|--3--------3-----------3--|
--------------------------|--------------------------|--------------------------|


  A chord diagramE MajorE  A chord diagramE MajorE  A chord diagramE MajorE  A chord diagramE MajorE  A chord diagramE MajorE  A chord diagramE MajorE  Q
--------5-----------5----||
-----3-----------3-------||
--2-----------2----------||
--0--------0--------L----||
-------------------------||
-------------------------||



Duration Legend
---------------
H - half
Q - quarter
A chord diagramE MajorE - 8th
. - note dotted


Tablature Legend
----------------
L - tied note

Almost there ...

Sign in to get your own page with links to favourite songs and more. You are just one click away...

Login with Facebook Login with Google