Log in

One click and you are in

Login with Facebook Login with Google

Why sign up and log in

Guitar Tabs Explorer
Misc Soundtrack guitar chords for Good omens - main theme ukulele

Good Omens - Main Theme Ukulele chords by Misc Soundtrack

Misc Soundtrack guitar chords for Good omens - main theme ukulele

Guitar chords

Tuning: G C E A (G C E A)

Key: A

Difficulty: Novice

A|--7-6-7-6-7---------7---7-6-7-6-7-8-3-7-5---5-4-5-4-5-2-----2-5---5-4-5-4-5-7-8-7-5-2-5-3-|
E|--5---5---5-8-5-5-8-5---5---5---5-----7-7---4---4------4-0-4--4---4---4---4---------------|
C|---------------4----4-----------------------4---4-------------4---------------------------|
G|------------------------------------------------------------------------------------------|

A|---12-11-12-11-12-7---7-12--12-11-12-11-12-13-7-10-8---8-7-8-7-8-5---7-6-7-6-7-3-0--5-4-5-4-5-2--0-|
E|---9-----9-----9---8-9--9---9-----9-----9--9-----------5---5------7--5-------------------------4-0-|
C|--------------------9---9-----------------------------------------------------------4-------4----0-|
G|---9--------------------9------------------------------------------------------------------------2-|

Almost there ...

Sign in to get your own page with links to favourite songs and more. You are just one click away...

Login with Facebook Login with Google