Log in

One click and you are in

Login with Facebook Login with Google

Why sign up and log in

Guitar Tabs Explorer
Misc Soundtrack bass tabs for Godzilla 54 - japanese army march

Godzilla 54 - Japanese Army March bass tab by Misc Soundtrack

Misc Soundtrack bass tabs for Godzilla 54 - japanese army march

Bass tabs

Godzilla Soundtrack '54

Japanese Army March
g|---------9-9-9--------9-----------------
d|---10-12--------10-12-------------------
a|----------------------------------------
e|----------------------------------------

g|------9--------9--------9--9------------
d|---12---10--12---10--12-----------------
a|----------------------------------------
e|----------------------------------------

g|---------9-10-9--12----12-------9-10-9--
d|---10-12------------12----10-12---------
a|----------------------------------------
e|----------------------------------------

g|---9----------------------------9-------
d|-----12-10-9-7--7----7-9-10-12----9-----
a|------------------10--------------------
e|----------------------------------------

g|----------------------------------------
d|---10-9-7--7----7-9-10-9-7--------------
a|-------------10-------------------------
e|----------------------------------------

2x

then last note

g|----------------------------------------
d|---9------------------------------------
a|----------------------------------------

Almost there ...

Sign in to get your own page with links to favourite songs and more. You are just one click away...

Login with Facebook Login with Google