Log in

One click and you are in

Login with Facebook Login with Google

Why sign up and log in

Guitar Tabs Explorer
Misc Soundtrack guitar tabs for Godfather love song

Guitar tabs

 
The Godfather Love Song
  By Nino Rota
 
Tabbed by Alex Hiam
 
this tab is pretty much perfect. dont believe me? play along with the
song!
 
 
 
1A
 
e:----8-11-10-8-11-8-10-8------------8-11-10-8-11-8-10-8------------
B:--8---------------------9-11-8~--8---------------------8-7-6~-----
G:------------------------------------------------------------------
D:------------------------------------------------------------------
A:------------------------------------------------------------------
E:------------------------------------------------------------------
 
1B
 
e:------7-10~-----7-8~---------------------------------
B:--6-9-------6-9-----------11-9-8-11-9-9-8-8----------
G:------------------------8----------------------------
D:---------------------10---------------------9-10~----
A:-----------------------------------------------------
E:-----------------------------------------------------
 
1C
 
e:------7-10~-----7-8~------------------------7-8~-----
B:--6-9-------6-9-----------11-9-8-11-9-9-8-8----------
G:------------------------8----------------------------
D:---------------------10------------------------------
A:-----------------------------------------------------
E:-----------------------------------------------------
 
1D
 
e:--8-8-7-6-10-10-8------------------------------------
B:------------------9-8~-8-11-9-6~-6-9-7-8~------------
G:-----------------------------------------------------
D:-----------------------------------------------------
A:-----------------------------------------------------
E:-----------------------------------------------------
 

Part 1:
 
1A
1B
1D
1A
1C
1D
 
Part 2:
 
everything moves up 3 frets and becomes 2A, 2B, 2C and 2D
the only diiference is in 2B. at the end of the line it goes
e:--------------
B:---9-10~------
 
instead of
 
D:---9-10~------
A:--------------
E:--------------
 

Its a pretty easy song and sounds really cool when you play it right
i suggest renting the movie and listening to the song a few times(im
not sure when it plays, but its probably in the credits) or just
download it.
 

any Questions? email me: trout_man_34@hotmail.com
 
ps. did i confuse you with part 2? email me and ill send you the
tab for it

Almost there ...

Sign in to get your own page with links to favourite songs and more. You are just one click away...

Login with Facebook Login with Google