Log in

One click and you are in

Login with Facebook Login with Google

Why sign up and log in

Guitar Tabs Explorer
Misc Soundtrack bass tabs for Gli angelo del 2000 - gli angelo del 2000

Gli Angelo Del 2000 - Gli Angelo Del 2000 bass tab by Misc Soundtrack

Misc Soundtrack bass tabs for Gli angelo del 2000 - gli angelo del 2000

Bass tabs

Tuning: Standard (E A D G)

Difficulty: Intermediate

Mario Molino - Gli Angeli del 2000
BPM 101

 Part 1: starts at 00:10

G|--------------------------------|--------------------------------|
D|--------------------------------|--------------------------------|
A|----------------5---5---5-----5-|7---7---7-----7-5---5-----------| x 14
E|5---5---5-----5-----------------|------------------------8---8---|


 Part 2: starts at 01:17

G|--------------------------------|--------------------------------|
D|--------------------------------|--------------------------------|
A|----------------5---5---5-----5-|7---7---7-----7-5---5-----------| x 14
E|5---5---5-----5-----------------|------------------------8---8---|


 End:

G|--------------------------------|
D|--------------------------------|
A|--------------------------------|
E|5-------------------------------|

Almost there ...

Sign in to get your own page with links to favourite songs and more. You are just one click away...

Login with Facebook Login with Google