Log in

One click and you are in

Login with Facebook Login with Google

Why sign up and log in

Guitar Tabs Explorer
Misc Soundtrack bass tabs for Gianfranco and gianpiero reverberi - nel cimitero di tucson

Gianfranco And Gianpiero Reverberi - Nel Cimitero Di Tucson bass tab by Misc Soundtrack

Misc Soundtrack bass tabs for Gianfranco and gianpiero reverberi - nel cimitero di tucson

Bass tabs

Tuning: EADG

G|----------------------------------------------------------------|.
D|8-------8---8---8-------8-------8-------8---8---8-------8-------|.
A|----------------------------------------------------------------|.
E|----------------------------------------------------------------|.
                                  .
G|----------------------------------------------------------------|.
D|11------11--11--11------11------11------11--11--11------11------|.
A|----------------------------------------------------------------|.
E|----------------------------------------------------------------|.
                                  . x2
G|----------------------------------------------------------------|.
D|----------------------------------------------------------------|.
A|9-------9---9---9-------9-------9-------9---9---9-------9-------|.
E|----------------------------------------------------------------|.
                                  .
G|----------------------------------------------------------------|.
D|----------------------------------------------------------------|.
A|8-------8---8---8-------8-------8-------8---8---8-------8-------|.
E|----------------------------------------------------------------|.

0:34

G|----------------------------------------------------------------|
D|8-------8---8---8-------8-------8-------8---8---8-------8-------|
A|----------------------------------------------------------------|
E|----------------------------------------------------------------|

G|----------------------------------------------------------------|
D|11------11--11--11------11------11------11--11--11------11------|
A|----------------------------------------------------------------|
E|----------------------------------------------------------------|

G|----------------------------------------------------------------|
D|----------------------------------------------------------------|
A|9-------9---9---9-------9-------9-------9---9---9-------9-------|
E|----------------------------------------------------------------|

G|----------------------------------------------------------------|
D|----------------------------------------------------------------|
A|8-------8---8---8-------8-------8-------8---8---9-------11------|
E|----------------------------------------------------------------|

0:50

G|----------------------------------------------------------------|
D|11------11--11--11------11------11------11--11--11------11------|
A|----------------------------------------------------------------|
E|----------------------------------------------------------------|

G|----------------------------------------------------------------|
D|----------------------------------------------------------------|
A|11------11--11--11------11------11------11--11--11------11------|
E|----------------------------------------------------------------|

G|----------------------------------------------------------------|
D|8-------8---8---8-------8-------10------10--10--10------10------|
A|----------------------------------------------------------------|
E|----------------------------------------------------------------|

G|----------------------------------------------------------------|
D|----------------------------------------------------------------|
A|8-------8---8---8-------8-------8-------8---8---8---8---8-8-8---|
E|----------------------------------------------------------------|

1:07

G|----------------------------------------------------------------|
D|8-------8---8---8-------8-------8-------8---8---8-------8-------|
A|----------------------------------------------------------------|
E|----------------------------------------------------------------|

G|----------------------------------------------------------------|
D|11------11--11--11------11------11------11--11--11------11------|
A|----------------------------------------------------------------|
E|----------------------------------------------------------------|

G|----------------------------------------------------------------|
D|----------------------------------------------------------------|
A|9-------9---9---9-------9-------9-------9---9---9-------9-------|
E|----------------------------------------------------------------|

G|----------------------------------------------------------------|
D|----------------------------------------------------------------|
A|8-------8---8---8-------8-------8-------8---8---9-------11------|
E|----------------------------------------------------------------|

1:23

G|----------------------------------------------------------------|
D|11------11--11--11------11------11------11--11--11------11------|
A|----------------------------------------------------------------|
E|----------------------------------------------------------------|

G|----------------------------------------------------------------|
D|----------------------------------------------------------------|
A|11------11--11--11------11------11------11--11--11------11------|
E|----------------------------------------------------------------|

G|----------------------------------------------------------------|
D|8-------8---8---8-------8-------10------10--10--10------10------|
A|----------------------------------------------------------------|
E|----------------------------------------------------------------|

G|--------------------------------------------------------------|
D|--------------------------------------------------------------|
A|8-------8---8---8---8---8-8-8-8-------------------------------|
E|--------------------------------------------------------------|

1:40

G|----------------------------------------------------------------|
D|8-------8---8---8-------8-------8-------8---8---8-------8-------|
A|----------------------------------------------------------------|
E|----------------------------------------------------------------|

G|----------------------------------------------------------------|
D|11------11--11--11------11------11------11--11--11------11------|
A|----------------------------------------------------------------|
E|----------------------------------------------------------------|

G|----------------------------------------------------------------|
D|----------------------------------------------------------------|
A|9-------9---9---9-------9-------8-------------------------------|
E|----------------------------------------------------------------|

1:54

G|----------------------------------------------------------------|
D|8-------8---8---8-------8-------8-------8---8---8-------8-------|
A|----------------------------------------------------------------|
E|----------------------------------------------------------------|

G|------------------------------------------------------------------|
D|11------11--11--11------11------11------11--11--11------11--------|
A|------------------------------------------------------------------|
E|------------------------------------------------------------------|

G|----------------------------------------------------------------|
D|----------------------------------------------------------------|
A|9-------9---9---9-------9-------9-------9---9---9-------9-------|
E|----------------------------------------------------------------|

G|------------------------------------------------------------------------|
D|8-------8---8---8-------8-------8-------8---8---8-------8-----------8---|
A|------------------------------------------------------------------------|

Almost there ...

Sign in to get your own page with links to favourite songs and more. You are just one click away...

Login with Facebook Login with Google