Log in

One click and you are in

Login with Facebook Login with Google

Why sign up and log in

Guitar Tabs Explorer
Misc Soundtrack guitar chords for Ghost busters punk

Ghost Busters Punk chords by Misc Soundtrack

Misc Soundtrack guitar chords for Ghost busters punk

Guitar chords with lyrics

Album: Unknown
Tabbed: Adam Jarvie=20

I couldn't find this rockin' tab anywhere, so I decided to tab it = myself.
Didn't take long. A chord diagramA augmentedA damn good crowd pleaser. To get perfect timing for = the
mutes download the punk cover of ghost busters from morpheus or = something.
Turn the gain up to 7 for a good crunch, preferably on a valve amp.

This riff is played throughout occasionally switching to clean.

x - muted, struck string
X - don't play string

   Bmaj         Amaj Emaj       Bmaj     Amaj Emaj

E---x-x--xxxx---x-x--x--x-----x--x--xxxx-x--x--x-------]
B---x-x--xxxx---x-x--x--x-----x--x--xxxx-x--x--x-------]
G---8-8--xxxx--14-14-13-13----x--8--xxxx-14-14-13------]
D---9-9--xxxx--14-14-14-14----x--9--xxxx-14-14-14------]
A---9-9--xxxx--12-12-14-14----x--9--xxxx-12-12-14------]
E---7-7--xxxx---X-X--12-12----x--7--xxxx--X--X-12------]


THERE'S NO MNISTAKES!, but if u want to contact me it's =
ajarvie@hotmail.com


Bass  just the root notes with same Rhythm.

G------------------------------------------------------]
D------------------------------------------------------]
A--------------12-12---------------------12-12---------]
E---7-7--xxxx--------12-12----x--7--xxxx-------12------]

Almost there ...

Sign in to get your own page with links to favourite songs and more. You are just one click away...

Login with Facebook Login with Google