Log in

One click and you are in

Login with Facebook Login with Google

Why sign up and log in

Guitar Tabs Explorer
Misc Soundtrack tabs for Forrest gump theme

Guitar tabs

Sent:   Tuesday, December 16, 1997 5:43 PM


Here is the rythm to start with ( i dont know if it´s right...it´s
transcribed from a MIDI-file..)
If you find any errors or if you have any suggestions of
improvements... e-mail me ;)

     played 6-times         2-times            2-times
e-----------------------------------------------------------------
B-----15-15-15-15--------17-17-17-17-------15-15-15-15----
G-12-------------------14----------------11-------------------
D----------------------------------------------------------------
A----------------------------------------------------------------
E----------------------------------------------------------------
       2-times            |<from here 2-times  |<2-times        some times
e------------------------------------------------------------------------
B-----15-15-15-15------------12-12-12-12--------8-8-8-8------5-5-5-5-
G-12-----------------12-11-9---------------9-7-5---------3-2---------
D-----------------------------------------------------------------------
A-----------------------------------------------------------------------
E-----------------------------------------------------------------------

Ok.. here is the main theme!

e--7-8-10-10-7-10-14-10-7---8-10-12-12-10-12---7-8-10-10-7-10-16-10-7--
B----------------------------------------------------------------------
G----------------------------------------------------------------------
D----------------------------------------------------------------------
A----------------------------------------------------------------------
E----------------------------------------------------------------------


e-7-8-10-10-7-10-16-10---12-14-15-15-12-15-12-15-12---8-10-12-12-8-12--
B----------------------------------------------------------------------
G----------------------------------------------------------------------
D----------------------------------------------------------------------
A----------------------------------------------------------------------
E----------------------------------------------------------------------

e-7-8-10-10-7-5-7-8-5-3------------------------------------------------
B----------------------------------------------------------------------
G----------------------------------------------------------------------
D----------------------------------------------------------------------
A----------------------------------------------------------------------
E----------------------------------------------------------------------

Almost there ...

Sign in to get your own page with links to favourite songs and more. You are just one click away...

Login with Facebook Login with Google