Log in

One click and you are in

Login with Facebook Login with Google

Why sign up and log in

Guitar Tabs Explorer
Misc Soundtrack bass tabs for Disaster movie - im dating matt damon

Disaster Movie - I'm Dating Matt Damon bass tab - Misc Soundtrack

Misc Soundtrack bass tabs for Disaster movie - im dating matt damon

Bass tabs

---------------------|
---------------------|
------3-3-----3-3----|
--3-3-----3-3--------|


Riff 1:

---------------------|
---------------------|
----2-3-0------------|
--3------------------|


Riff 2:

---------------------|
----0-2--------------|
--------3------------|

Almost there ...

Sign in to get your own page with links to favourite songs and more. You are just one click away...

Login with Facebook Login with Google