Log in

One click and you are in

Login with Facebook Login with Google

Why sign up and log in

Guitar Tabs Explorer
Misc Soundtrack tabs for Brothers

Guitar tabs

This is the kind of music that makes you wish you played the oboe.  Since
I don't, I've transcribed it for the guitar.

BROTHERS

by Ennio Morricone

e--------O-|----------------O-------O---O---12--|-1O------------1O--9--1O-----
B----------|-7-----------7------7---8--1O-------|-12-----------------------10-
G-----7----|-------------7--6---7---------------|---------------11------------
D-7---O----|----O--4--7-------------------------|---------O-------------------
A----------|--------------------------------12--|--9---------9--12------------
E----------|------------------------------------|------7----------------------

e-7--5------3------7------7----|--O----------------------O-----|-------------O-
B--------------O------1O-----7-|--8----------O--1O-------8---O-|-7-------------
G------------------8-----------|---------O-------8-------O-----|-7-----------6-
D-----------O------------------|-----------------7---4---------|-O--7--4--O----
A------------------------------|------7------------------------|-------------O-
E-------3----------------------|-------------------------------|---------------

e--------------------O-------O---O---12--|-13------------------12--1O-|
B--7-------------7-------7---8--1O-------|-1O-------------------------|
G----------------7---6---7---------------|----------------------------|
D-----O---4---7--------------------------|-----1O---7---8--1O---------|
A------------------------------------12--|----------------------8-----|
E----------------------------------------|----------------------------|

e--8---------------7----------12--1O-|--8-------6-------6--1O---8---6--|
B--8----------1O------1O----------1O-|------------------8------1O---8--|
G------------------O------1O--12-----|--7------------------------------|
D------O-----------------------------|------O---8----------------------|
A--7-------7---8-----------8-------8-|--8------------------------------|
E-----------------------------12-----|--------------3-----------O------|

e---O-------5-------O-------------|---O--------------O--|
B--1O---8-----------------------O-|--1O----8----7----O--|
G-----------------------O---2-----|--------7----6-------|
D-------------------------------O-|---7-----------------|
A-------------------O---2---4-----|-------------O-------|
E-------O---2---3-----------------|---9----7---------3--|

e--------------------O-------O---O---12--|-1O--------------1O---9--1O------|
A--7-------------7-------7---8--1O-------|-12--------------------------10--|
D----------------7---6---7---------------|-----------------11--------------|
G-----O---4---7--------------------------|----------O----------------------|
B------------------------------------12--|--9-----------9--12--------------|
E----------------------------------------|------7--------------------------|

e--7---5-------3-------7-------7------|--O-----------------------O-----|
B------------------O------1O-------7--|--8-----------O--1O-------8---O-|
G----------------------8--------------|----------O-------8-------O-----|
D--------------O----------------------|------------------7---4---------|
A-------------------------------------|------7-------------------------|
E----------3--------------------------|--------------------------------|

e------------------O---------|-----------------|
B--7-------------------------|--3--------------|
G--7---------------6---------|--2--------------|
D--O---7-------O-------------|--3-----------O--|
A----------9-------4-------O-|----------O------|
E----------------------7-----|------2----------|

Other versions of Brothers

Brothers themeTabs

Almost there ...

Sign in to get your own page with links to favourite songs and more. You are just one click away...

Login with Facebook Login with Google