Log in

One click and you are in

Login with Facebook Login with Google

Why sign up and log in

Guitar Tabs Explorer
Misc Soundtrack tabs for Braveheart

Guitar tabs

BraveHeart Theme Tab
Tabed By: Anthony Daly

Notes: Not originally for guitar, this is the Bagpipes which are the main
melody of the tune

*  repeat bar sign
*

A chord diagramE MajorE|---------------------|--5------------8----|
A chord diagramBB|-----------5----8----|--------------------|
A chord diagramG+G|*--------------------|--------------------|
A chord diagramD MajorD|*--------------------|--------------------|
A chord diagramA augmentedA|---------------------|--------------------|
A chord diagramE MajorE|---------------------|--------------------|
--7----8--7--5---------|-----------5--------|---------------------|
------------------8----|--8-----------------|--5--------5----8----|
-----------------------|--------------------|---------------------|
-----------------------|--------------------|---------------------|
-----------------------|--------------------|---------------------|
-----------------------|--------------------|---------------------|


--5------------8----|--7----8--7--5---------|-------------------|
--------------------|------------------8----|--8----------------|
--------------------|-----------------------|-------------------|
--------------------|-----------------------|-------------------|
--------------------|-----------------------|-------------------|
--------------------|-----------------------|-------------------|


--5-----------------||------------------|----------------8----|
--------------------||------------------|----------10---------|
-------------------*||------------------|---------------------|
-------------------*||------------------|---------------------|
--------------------||------------------|---------------------|
--------------------||------------------|---------------------|

                                                                     
--10--------8----------|----------------------|--6----5----3----1----|
-----------------10----|--8--------------8----|----------------------|
-----------------------|-----------10---------|----------------------|
-----------------------|----------------------|----------------------|
-----------------------|----------------------|----------------------|
-----------------------|----------------------|----------------------|


                                                            
----------------1----|-------------------|------------------|
--3--------1---------|--3----------------|------------------|
---------------------|-------------------|------------------|
---------------------|-------------------|------------------|
---------------------|-------------------|------------------|
---------------------|-------------------|------------------|


                                                                              
|-------------12----15----|--17------------20----|--19----20--19--17----15----|
|---17--------------------|----------------------|----------------------------|
|*------------------------|----------------------|----------------------------|
|*------------------------|----------------------|----------------------------|
|-------------------------|----------------------|----------------------------|
|-------------------------|----------------------|----------------------------|


                                                                 
--15--------17---------||--17----------------|------------------||
-----------------------||--17----------------|------------------||
----------------------*||--------------------|------------------||
----------------------*||--------------------|------------------||
-----------------------||--------------------|------------------||
-----------------------||--------------------|------------------||

Ant3

Other versions of Braveheart

Braveheart themeTabs
Braveheart theme - introTabs

Almost there ...

Sign in to get your own page with links to favourite songs and more. You are just one click away...

Login with Facebook Login with Google