Log in

One click and you are in

Login with Facebook Login with Google

Why sign up and log in

Guitar Tabs Explorer
Misc Soundtrack guitar tabs for Blazing saddles

Guitar tabs

Blazing Saddles theme
transcribed by bill worrell
jeffw99@earthlink.net
e-------------------------------------------------------------------
b--------------------3--0---------------------------------------3--
g--2-2--------2-4----------2-------------------2--------2--4-----
d--------4-0--------------------4-0----2---0------4-0------------
a-------------------------------------2-----------------------------
E-------------------------------------------------------------------

e-------------------------------------------------------------------
b------------------------------3-2-3-2-------------------3-2-3-5-
g--4-2----------------2-4-4-------------2-------2-4-4------------
d--------4-0-----0---------------------------4---------------------
a--------------2----------------------------------------------------
E-------------------------------------------------------------------

e-------------------------------------------------------------------
b-------------------3-0--------------------------------------------
g--2-2--------2-4-------2-----------------------------------------
d-------4-0-----------------4-0-----0----0-3-3-3-0-2--0-0-0----
a---------------------------------2-------------------------------0
E------------------------------------------------------------------

e-------------------------------------------------------------------
b-------------------------------------------------------------------
g----2------------0----------------------------------0-2-3-2------
d-0----3-0--0-0-----2-----0-3-0-2----0--0-1-1-1-----------3-0-
a------------------------3------------3----------------------------
E-------------------------------------------------------------------

e-------------------------------------------------------------------
b-------------------------------------------------------------------
g---------0-3-2----------------------------------------------------
d-0-1-1-------------0-0-2-3-2-0-2--------------0-0----------0---
a-----------------0--------------------3-0-0--0-------1-0--0-----
E-------------------------------------------------------------------

e-------------------------------------------------------------------
b----------------------------3--0----------------------------------
g----3-2~--2-2--------2-4----------2--------------------2--------
d-3--------------4-0---------------------4-0----2---0------4-0---
a----------------------------------------------2--------------------
E-------------------------------------------------------------------

e-------------------------------------------------------------------
b------3------------------------------3-2-3-2-------------------3-
g-2-4-----4-2----------------2-4-4-------------2-------2-4-4----
d---------------4-0-----0---------------------------4-------------
a--------------------2----------------------------------------------
E-------------------------------------------------------------------

e---------------------------------------------------
b-2-3-5--------------------3-0-----3--5--5--3~~--
g----------2-2--------2-4-------2-----------------
d----------------4-0-------------------------------
a---------------------------------------------------
E---------------------------------------------------

Other versions of Blazing Saddles

Blazing saddles - ballad of rock ridgeTabs
Blazing saddles themeTabs

Almost there ...

Sign in to get your own page with links to favourite songs and more. You are just one click away...

Login with Facebook Login with Google