Log in

One click and you are in

Login with Facebook Login with Google

Why sign up and log in

Guitar Tabs Explorer
Misc Soundtrack guitar tabs for Big bang theory - soft kitty

Big Bang Theory - Soft Kitty tab by Misc Soundtrack

Misc Soundtrack guitar tabs for Big bang theory - soft kitty

Guitar tabs

Q     Q    Q    Q
A chord diagramE MajorE||-----------------------|
A chord diagramBB||-----------------------|
A chord diagramG+G||--9----------7---------|
A chord diagramD MajorD||-------11---------9----|
A chord diagramA augmentedA||-----------------------|
A chord diagramE MajorE||-----------------------|
  A chord diagramE MajorE  A chord diagramE MajorE   A chord diagramE MajorE  A chord diagramE MajorE  H
------------------------|
------------------------|
------------7--9--------|
--7--9--11--------------|
------------------------|
------------------------|


  Q     Q    Q    Q
-----------------------|
-----------------------|
--9----------7---------|
-------11---------9----|
-----------------------|
-----------------------|


  Q    Q    H
---------------------||
---------------------||
---------------------||
--7----9----7--------||
---------------------||
---------------------||

Other versions of Big Bang Theory - Soft Kitty

Big bang theory - soft kittyChords

Almost there ...

Sign in to get your own page with links to favourite songs and more. You are just one click away...

Login with Facebook Login with Google