Log in

One click and you are in

Login with Facebook Login with Google

Why sign up and log in

Guitar Tabs Explorer
Misc Soundtrack tabs for Beverly hills cop theme

Beverly Hills Cop Theme tab by Misc Soundtrack

Misc Soundtrack tabs for Beverly hills cop theme

Guitar tabs with lyrics

AXEL-F
                                   ======

NOTE: The spacing between the numbers is very rough...you'll have to listen
      to the song to work out the timing...also, I don't think I've tabed
      out the bass in the same key as most of the riffs.
      I've left the empty guitar/bass bars in so you wont get confused.
KEY: *  = repeat sign (everything between)
     %  = repeat previous bar(s)
     () = optional note
     R  = rest

Play in the following order:

Riff: 1  2  3  4  5  2  6  3  7  8  9  10  4  3  11 END

Use delay  throughout (about 300milsec)

 RIFF 1
 Guitar 1
|---------------------------------------------------|
|*-------------------------------------------------*|
|---------------------------------------------------|
|------------------------------------7--------------|
|*-------3----5-------7----8-7-----7---------------*|
|--(3)-5---55---5-3-5---55-----8-5-----5-33-0-7-5---|


Guitar 2 (optional- play same as guitar 1 but start 1 note late)

Bass plays nothing here
|-------------------------------------------------------|
|-------------------------------------------------------|
|-------------------------------------------------------|
|-------------------------------------------------------|


RIFF 2
Guitar 1 plays nothing here
|-------------------------------------------------------|
|-------------------------------------------------------|
|-------------------------------------------------------|
|-------------------------------------------------------|
|-------------------------------------------------------|
|-------------------------------------------------------|

(11's not ones)
|-----11---9---6-----11---6-9-11---7---9-------11-9-6-4-2---|
|*--4----2-------2-4--------------0--2-----2-4-------------*|
|*-----------4----------4----------------4-----------------*|
|-----------------------------------------------------------|


RIFF 3
|----------------------------------------------|
|*--------------------------------------------*|
|----------------------------------------------|
|--------------------------------7-------------|
|*---3----5-------7----8-7-3---7--------------*|
|--5---55---5-3-5---55-------5-----5-33-0-7-5--|


|----11---9---6-----11---6-9-11---7---9-------11-9-6-4-2--|
|*-4----2-------2-4-------------0---2-----2-4------------*|
|*----------4----------4----------------4----------------*|
|---------------------------------------------------------|


RIFF 4
|----------------------------------------------------------------|
|*--------------------------------------------------------------*|
|-------5-55-----------5-55--------------------------------------|
|---777------99----777------9-5----------------------------------|
|*------------------------------888788--888--12-12-12-10-12-12--*|
|----------------------------------------------------------------|


|----11---9---6-----11---6-9-11---7---9-------11-9-6-4-2--|
|*-4----2-------2-4-------------0---2-----2-4------------*|
|*----------4----------4----------------4----------------*|
|---------------------------------------------------------|


RIFF 5
Guitar plays nothing here
|----------------------------------------------------------|
|----------------------------------------------------------|
|----------------------------------------------------------|
|----------------------------------------------------------|
|----------------------------------------------------------|
|----------------------------------------------------------|

|----11---9---6-----11---6-9-11---7---9-------11-R-R-R-R-|
|*-4----2-------2-4-------------0---2-----2-4----R-R-R-R-|
|*----------4----------4----------------4--------R-R-R-R-|
|------------------------------------------------R-R-R-R-|


RIFF 6
|-14-14-14--12-12-12--9-9--7-7-7--5-5-5--2-|
|------------------------------------------|
|------------------------------------------|
|------------------------------------------|
|------------------------------------------|
|------------------------------------------|

|---11---9---6----11---6-9-11---7---9-------11-9-6-4-2-|
|-4----2------2-4-------------0---2-----2-4------------|
|----------4---------4----------------4----------------|
|------------------------------------------------------|


RIFF 7
|----------------------------------|--------%----------|
|----------------------------------|--------%----------|
|----------------------------------|--------%----------|
|-0-----0-----0----0-----0-----00--|--------%----------|
|----0-----0---0------0-----0----0-|--------%----------|
|----------------------------------|--------%----------|
 |-------slight palm mute--------|


|------------------------------------------------------|
|---7--7-7------5--5-5------6--6-6------2--2-2---------|
|-0----------------------------------------------------|
|-------------2-----------3-----------0----------------|


RIFF 8
|---------------------------------------------------------|
|---------------------------------------------------------|
|---------------------------------------------------------|
|-7-7-------7-7-------7-7-------7-7-------7-7-------7-7---|
|------7-7-------7-7-----7-----------7-7-------7-7------7-|
|---------------------------------------------------------|

|--------------------------------------------|
|---7--7-7------5--5-5----6--6-6-----2--2-2--|
|-0------------------------------------------|
|-------------2---------3---------0----------|


RIFF 9
|--------------------------|--------%--------|---------%-------|------%------|
|--------------------------|--------%--------|---------%-------|------%------|
|--------------------------|--------%--------|---------%-------|------%------|
|-2-------------2----------|--------%--------|---------%-------|------%------|
|---4-2-0--2--4----4--2--0-|--------%--------|---------%-------|------%------|
|--------------------------|--------%--------|---------%-------|------%------|

|--------------------------------------------------|
|----77-----------44----------55-----5-----22------|
|-0---------0--2--------2--3-----------------------|
|---------------------------------------0-------0--|


RIFF 10
Guitar 1
|------------------------------|-----%-----|-----%------|------%------|
|*-----------------------------|-----%-----|-----%------|------%------|
|------------------------------|-----%-----|-----%------|------%------|
|---2----------------2---------|-----%-----|-----%------|------%------|
|*-----4-2-0---2---4-----4-2-0-|-----%-----|-----%------|------%------|
|------------------------------|-----%-----|-----%------|------%------|

Guitar 2
|---------------------------------------------------------------------|
|*-------------------------------------------------------------------*|
|---------------------------------------------------------------------|
|---------------------------------------------------------------------|
|*-7-22-07--2--727--22-07--2--727--7--22--07--2--727--22--07--2--772-*|
|---------------------------------------------------------------------|

|----------------------------------------------------|
|*----77------------44-----------55---5------22-----*|
|*-0--------0---2--------2---3----------------------*|
|----------------------------------------0--------0--|


RIFF 11
|------------------------------------|---------------%---------------|
|------------------------------------|---------------%---------------|
|------------------------------------|---------------%---------------|
|------------------------------------|---------------%---------------|
|-888--7--88--888--12-12-12-10-12-12-|---------------%---------------|
|------------------------------------|---------------%---------------|

|----11-----9-----6--------11-----6--9--11-----7-----9----------11-9-6-4-2-|
|-4------2-----------2--4-------------------0-----2--------2--4------------|
|--------------4---------------4------------------------4------------------|
|--------------------------------------------------------------------------|

 END  a--(3)--
      e--(5)--


--
       <<<>>>   STORM@DIALIX.OZ.AU    <<<>>> I shall fear no evil <<<>>>
       <<<>>> Perth Western Australia <<<>>> For thou worships me <<<>>>
       <<<>>>   FIDONET: 3:690/660

Almost there ...

Sign in to get your own page with links to favourite songs and more. You are just one click away...

Login with Facebook Login with Google