Log in

One click and you are in

Login with Facebook Login with Google

Why sign up and log in

Guitar Tabs Explorer
Misc Soundtrack guitar tabs for Beverly hills 90210 theme

Beverly Hills 90210 Theme tab by Misc Soundtrack

Misc Soundtrack guitar tabs for Beverly hills 90210 theme

Guitar tabs

Key:
h,p  = hammer on, pull off
/,\  = bend up, bend down
>  = slide up or down

|----------------------------------------15--15------------|
|----------15--17--------------15--17>18-------------------|
|------17------------------17---------------------17-------|
|--17------------------17----------------------------------|
|----------------------------------------------------------|
|----------------------------------------------------------|

|--------------------15--15--------------------------------|
|----------15--17/18---------18-18--17--15---15------------|
|------17----------------------------------------17-16-17--|
|--17------------------------------------------------------|
|----------------------------------------------------------|
|----------------------------------------------------------|

|----------------------------------------------------------|
|--20/22\20--18p17--18p17p15-------------------------------|
|-----------------------------17---------------------------|
|----------------------------------------------------------|
|----------------------------------------------------------|
|----------------------------------------------------------|


 If its wrong, who cares

Almost there ...

Sign in to get your own page with links to favourite songs and more. You are just one click away...

Login with Facebook Login with Google