Log in

One click and you are in

Login with Facebook Login with Google

Why sign up and log in

Guitar Tabs Explorer
Misc Soundtrack bass tabs for Beverly hills 90210 theme

Beverly Hills 90210 Theme bass tab by Misc Soundtrack

Misc Soundtrack bass tabs for Beverly hills 90210 theme

Bass tabs

Bass-synth version:
G|---------------------------|---------------------------------------|-----------------|
D|---3--1--1--------1-----3--|--------1--3--------1--1-----1--3--3/--|--3--1-----------|
A|------------3--3-----------|--1--3--------4--4--------3------------|--------3--1-----|
E|-1-------------------1-----|---------------------------------------|--------------4--| repeat

High-synth version: (can be slid down to from the other lick)
G|------------------15----------|------17----------18--17------|
D|--15--18--15--15------15------|--15------15--15----------18--|
A|--------------------------18--|------------------------------|
E|------------------------------|------------------------------|

G|------17--22--------------------------|----------------------|
D|--15----------15--------------17--15--|--13------------------|
A|------------------18--18--15----------|------15--13----------|
E|--------------------------------------|--------------16--13--|


************************************

| / Slide up

Almost there ...

Sign in to get your own page with links to favourite songs and more. You are just one click away...

Login with Facebook Login with Google