Log in

One click and you are in

Login with Facebook Login with Google

Why sign up and log in

Guitar Tabs Explorer
Misc Soundtrack bass tabs for Beetlejuice - say my name

Beetlejuice - Say My Name bass tab by Misc Soundtrack

Misc Soundtrack bass tabs for Beetlejuice - say my name

Bass tabs with lyrics

Tuning: Standard (E A D G)


Intro:
G|---------------------------------|
D|---------------------------------|
A|---------------------------------|
E|-1.----1.------------------------|
  1 + + + 2 + + + 3 + + + 4 + + +

Part A: "You could use a buddy ..."
G|---------------------------------|---------------------------------|
D|---------------------------------|---------------------------------|
A|---------------------------------|---------------------------------|
E|-1.----1.------------------------|-3.----3.------------------------|
  1 + + + 2 + + + 3 + + + 4 + + +  1 + + + 2 + + + 3 + + + 4 + + +

G|---------------------------------|---------------------------------|
D|-1.----1.------------------------|---------------------------------|
A|---------------------------------|-------------------------0~------|
E|---------------------------------|-1.------------------------------|
  1 + + + 2 + + + 3 + + + 4 + + +  1 + + + 2 + + + 3 + + + 4 + + +

G|-----------------3.----3.--------|-2.----2.------------------------|
D|---------------------------------|-----------------1~--------------|
A|-1.----1.------------------------|-------------------------4~------|
E|---------------------------------|---------------------------------|
  1 + + + 2 + + + 3 + + + 4 + + +  1 + + + 2 + + + 3 + + + 4 + + +

G|---------------------------------|---------------------------------|-----------------|
D|---------------------------------|---------------3.----------------|-----------------|
A|-3.------------3.----------------|-3.--3.--3-3---------------------|-----------------|
E|---------------------------------|---------------------------------|---------1/------|
  1 + + + 2 + + + 3 + + + 4 + + +  1 + + + 2 + + + 3 + + + 4 + + +  1 + + + 2 + + +

Part B: "Go ahead and jump ..."
G|---------------------------------|---------------------------------|
D|---------------------------------|---------------------4.--4/6\4---|
A|-6.----6.----6.------6.--6-8~----|-9.------------------------------|
E|---------------------------------|-------2.----2.------------------|
  1 + + + 2 + + + 3 + + + 4 + + +  1 + + + 2 + + + 3 + + + 4 + + +

G|---------------------------------|---------------------------------|
D|---------------------------------|---------------------------------|
A|-4.----4.----4.------4.--4-3-1-4-|---------1.--1~--3.--3~--4.--3-4-|
E|---------------------------------|-4.--4~--------------------------|
  1 + + + 2 + + + 3 + + + 4 + + +  1 + + + 2 + + + 3 + + + 4 + + +

G|---------------------------------|---------------------------------|
D|---------------------------------|-4.----4.----4.------4.--4-3---3-|
A|-6.----6.----6.------6---6-8~----|-----------------------------6---|
E|-------------------6---6---------|---------------------------------|
  1 + + + 2 + + + 3 + + + 4 + + +  1 + + + 2 + + + 3 + + + 4 + + +

G|---------------------------------|---------------------------------|
D|---------------------------------|---------------------------------|
A|-2.--2---2.--2---2.--2---2.--2---|-1.--1.--1.--1.--1.--------------|
E|---------------------------------|---------------------------------|
  1 + + + 2 + + + 3 + + + 4 + + +  1 + + + 2 + + + 3 + + + 4 + + +

Part C: "I don't know your name ..."
G|---------------------------------|---------------------------------|
D|-1.------------1.----------------|-1.------------1.----------------|
A|---------------------------------|---------------------------------|
E|---------------------------------|---------------------------------|
  1 + + + 2 + + + 3 + + + 4 + + +  1 + + + 2 + + + 3 + + + 4 + + +

G|---------------------------------|---------------------------------|
D|---------------------------------|-------------------------5~------|
A|-3.----3.------------------------|-3.----3.------------------------|
E|---------------------------------|---------------------------------|
  1 + + + 2 + + + 3 + + + 4 + + +  1 + + + 2 + + + 3 + + + 4 + + +

G|---------------------------------|---------------------------------|
D|---------------------------------|---------------------------------|
A|---------------------------------|---------------------------------|
E|-6.----6.------------------------|-6.----6.----------------6~------|
  1 + + + 2 + + + 3 + + + 4 + + +  1 + + + 2 + + + 3 + + + 4 + + +

G|---------------------------------|---------------------------------|
D|---------------------------------|---------------------------------|
A|---------------------------------|-4.----4.------------------------|
E|-4.----4.------------------------|---------------------------------|
  1 + + + 2 + + + 3 + + + 4 + + +  1 + + + 2 + + + 3 + + + 4 + + +

G|---------------------------------|---------------------------------|
D|---------------------------------|---------------------------------|
A|---------------------------------|---------------------------------|
E|-3.----3.----------------3-4-3-4-|-6~--------------------------1---|
  1 + + + 2 + + + 3 + + + 4 + + +  1 + + + 2 + + + 3 + + + 4 + + +

G|---------------------------------|---------------------------------|
D|---------------------------------|---------------------------------|
A|-1~------------------------------|-1~--------------1~--------------|
E|-----------------------------1---|-------------1---------------1---|
  1 + + + 2 + + + 3 + + + 4 + + +  1 + + + 2 + + + 3 + + + 4 + + +

G|---------------------------------|
D|---------------------------------|
A|-1~------1~------1.--------------|
E|---------------------------------|
  1 + + + 2 + + + 3 + + + 4 + + +

Part D: "You're so smart ..."
G|---------------------------------|---------------------------------|
D|-1.------------------------1-----|---------------------------------|
A|-------------------------------4.|---------------------------4---3.|
E|---------------------------------|---------------------------------|
  1 + + + 2 + + + 3 + + + 4 + + +  1 + + + 2 + + + 3 + + + 4 + + +

G|-----------------4.----4~--3-----|---------------------------------|
D|-----------------------------6---|-----------------------------1---|
A|-------------------------------6.|-----------------------1~--3---3-|
E|---------------------------------|---------------------------------|
  1 + + + 2 + + + 3 + + + 4 + + +  1 + + + 2 + + + 3 + + + 4 + + +

G|---------------------------------|---------------------------------|
D|-1.------------------------1-----|---------------------------------|
A|-------------------------------4.|---------------------------4---3.|
E|---------------------------------|---------------------------------|
  1 + + + 2 + + + 3 + + + 4 + + +  1 + + + 2 + + + 3 + + + 4 + + +

G|-----------------4.----4~--3-----|---------------------------------|
D|-----------------------------6---|---------------------------------|
A|-------------------------------6.|---------------------------------|
E|---------------------------------|---------------------------------|
  1 + + + 2 + + + 3 + + + 4 + + +  1 + + + 2 + + + 3 + + + 4 + + +

Part E: "..and spare the lecture ..."
G|---------------------------------|---------------------------------|
D|-------------------6.--5-6-5-3---|-----------------------10--8-----|
A|-------------------------------6-|-3~------5~----6.-/10--------10--|
E|-1~------3~----4.----------------|-------------------------------8-|
  1 + + + 2 + + + 3 + + + 4 + + +  1 + + + 2 + + + 3 + + + 4 + + +

G|-----------------------7p6-------|---------------8.----------------|
D|---------------------8-----8-----|-------------------------5~------|
A|-8~------6~----5.------------6---|-6~------6~----------6.------8-6-|
E|---------------------------------|-------------------6-------------|
  1 + + + 2 + + + 3 + + + 4 + + +  1 + + + 2 + + + 3 + + + 4 + + +

G|---------------------------------|---------------------------------|
D|-----------------------0-1-0-----|---------------------------------|
A|-5.--5.--------3.----3-------3---|-1~------0~----------1-3-1-------|
E|---------3~--------3-----------3-|---------------4.----------4-1-4-|
  1 + + + 2 + + + 3 + + + 4 + + +  1 + + + 2 + + + 3 + + + 4 + + +

G|---------------------------------|-----------------3.--3.--3.------|
D|---------------------------------|---------------3-----------------|
A|-4.--4.--4.--4.--3.--3.--3.--3.--|-1.--1.--1.--1.------------------|
E|---------------------------------|---------------------------------|
  1 + + + 2 + + + 3 + + + 4 + + +  1 + + + 2 + + + 3 + + + 4 + + +

Part F: "Playing hardball ..."
G|---------------------------------|---------------------------------|
D|---------------------------------|---------------------------------|
A|---------------------------------|---------------------------------|
E|-1.----1.------------------------|-3.----3.------------------------|
  1 + + + 2 + + + 3 + + + 4 + + +  1 + + + 2 + + + 3 + + + 4 + + +

G|---------------------------------|---------------------------------|
D|-1.----1.------------------------|---------------------------------|
A|---------------------------------|---------------------------------|
E|---------------------------------|-1.----1.------------------------|
  1 + + + 2 + + + 3 + + + 4 + + +  1 + + + 2 + + + 3 + + + 4 + + +

G|---------------------------------|---------------------------------|
D|---------------------------------|---------------------------------|
A|---------------------------------|---------------------------------|
E|-3.------------------------------|---------------------------------|
  1 + + + 2 + + + 3 + + + 4 + + +  1 + + + 2 + + + 3 + + + 4 + + +

Rest until 2:22

Part G: "He can help ..."
G|---------------------------------|---------------------------------|
D|-------------------------0-------|---------------------------------|
A|-----0---2-------0---2-------2---|-0---2---5---0---2-0-4---5---6---|
E|-3-----------3-------------------|---------------------------------|
  1 + + + 2 + + + 3 + + + 4 + + +  1 + + + 2 + + + 3 + + + 4 + + +

G|---------------------------------|-----------------7.--------------|-----------------|
D|-------5~------------------------|---------7.----------------------|-----------------|
A|-7~------------------------------|-------------------------5.------|-----------------|
E|-------------6~----1~----3---4---|-5.------------------------------|-----------------|
  1 + + + 2 + + + 3 + + + 4 + + +  1 + + + 2 + + + 3 + + + 4 + + +  1 + + + 2 + + +

Part H: "So violating ..."
G|---------------------------------|---------------------------------|
D|---------------------------------|---------------------------------|
A|-5.------------------------------|-6~--------------7~--------------|
E|---------------------------------|---------------------------------|
  1 + + + 2 + + + 3 + + + 4 + + +  1 + + + 2 + + + 3 + + + 4 + + +

G|---------------------------------|---------------------------------|
D|---------------------------------|---------------------------------|
A|-5.----5.------------------------|---------------------------------|
E|---------------------------------|-3.----3.------------------------|
  1 + + + 2 + + + 3 + + + 4 + + +  1 + + + 2 + + + 3 + + + 4 + + +

G|---------------------------------|---------------------------------|
D|-1.----1.------------------------|-0.------------------------------|
A|---------------------------------|---------------------------------|
E|---------------------------------|---------------------------------|
  1 + + + 2 + + + 3 + + + 4 + + +  1 + + + 2 + + + 3 + + + 4 + + +

G|---------------------------------|
D|---------------------------------|
A|-5---5---5---5---5---5---5---5---|
E|---------------------------------|
  1 + + + 2 + + + 3 + + + 4 + + +

Part I: "Hold up, hold up girl ...
G|---------------------------------|---------------------------------|
D|---------------------------------|---------------------------------|
A|---------------------------------|---------------------------------|
E|-3.------------------------3---1.|---------------------------1---0.|
  1 + + + 2 + + + 3 + + + 4 + + +  1 + + + 2 + + + 3 + + + 4 + + +

G|---------------------------------|---------------------------------|
D|-----------------1~--------------|---------------------------------|
A|---------------------------------|-2.--2.--2.--2.--2.--2.--2.--2~--|
E|---------------------------------|---------------------------------|
  1 + + + 2 + + + 3 + + + 4 + + +  1 + + + 2 + + + 3 + + + 4 + + +

G|---------------------------------|---------------------------------|
D|---------------------------------|---------------------------------|
A|-------------------------.-------|---------------------------------|
E|---------------------------------|---------------------------------|
  1 + + + 2 + + + 3 + + + 4 + + +  1 + + + 2 + + + 3 + + + 4 + + +

Rest until 3:11

Part J: "We don't need that ..."
G|---------------------------------|---------------------------------|
D|---------------------------------|---------------------------------|
A|-0.----0.----0.------0.--0-2~----|-3.----3.----3.------3.--3/5\3---|
E|---------------------------------|---------------------------------|
  1 + + + 2 + + + 3 + + + 4 + + +  1 + + + 2 + + + 3 + + + 4 + + +

G|---------------------------------|---------------------------------|
D|---------------------------------|-0.--0~--------------------------|
A|---------------------------------|---------------------------------|
E|-3.----3.----3.------3.--3-1-0-1-|---------0.--0~--1.--1~--3~--1-3-|
  1 + + + 2 + + + 3 + + + 4 + + +  1 + + + 2 + + + 3 + + + 4 + + +

G|---------------------------------|---------------------------------|
D|---------------------------------|---------------------------------|
A|-0.----0.----0.------0.--0-2~----|---------------------------------|
E|-------------------------------0-|-3.----3.----3.----0-3.--3~--3-2-|
  1 + + + 2 + + + 3 + + + 4 + + +  1 + + + 2 + + + 3 + + + 4 + + +

G|---------------------------------|---------------------------------|
D|---------------------------------|---------------------------------|
A|---------------------------------|---------------------------------|
E|-1.--1.--1.--1.--1.--1.--1.--1.--|-0.--0.--0.--0.--0.--0.--0.--0.--|
  1 + + + 2 + + + 3 + + + 4 + + +  1 + + + 2 + + + 3 + + + 4 + + +

G|---------------------------------|-4.--4.--2.--2.------------------|
D|---------------------------------|-----------------5.--5.--4.--4.--|
A|-1~--1~--1~--1~--1~--1~--1~--1~--|---------------------------------|
E|---------------------------------|---------------------------------|
  1 + + + 2 + + + 3 + + + 4 + + +  1 + + + 2 + + + 3 + + + 4 + + +

G|---------------------------------|
D|---------------------------------|
A|---------2~------.---------------|
E|---------------------------------|
  1 + + + 2 + + + 3 + + + 4 + + +

Part K: "I'm gonna make him say ..."
G|---------------------------------|---------------------------------|
D|-----------------------4h5p4-----|---------------------------4-----|
A|-------------------5h7-------5---|-5.--5.--------5.--5.--7~----7---|
E|-0.--0.--------0.--------------0-|-------------------------------0-|
  1 + + + 2 + + + 3 + + + 4 + + +  1 + + + 2 + + + 3 + + + 4 + + +

G|---------------------------------|---------------------------------|
D|---------------------------------|---------------------------------|
A|---------------------------------|---------------------------------|
E|-5.--5.----5.--5.--2---3-5-3-5-3-|-7.--7.--7.--7.--7.--------------|
  1 + + + 2 + + + 3 + + + 4 + + +  1 + + + 2 + + + 3 + + + 4 + + +

G|---------------------------------|---------------------------------|
D|---------------------------------|---------------------------------|
A|---------------------------------|---------------------------------|
E|-7.--7~----------7.--------------|---------0-----------------------|
  1 + + + 2 + + + 3 + + + 4 + + +  1 + + + 2 + + + 3 + + + 4 + + +

************************************

| ~ Let ring
| . Staccato/end note
| / Slide up
| \ Slide down
| h Hammer-on
| p Pull-off

************************************

Almost there ...

Sign in to get your own page with links to favourite songs and more. You are just one click away...

Login with Facebook Login with Google