Log in

One click and you are in

Login with Facebook Login with Google

Why sign up and log in

Guitar Tabs Explorer
Misc Soundtrack guitar chords for Be more chill - two player game- intro ukulele

Be More Chill - Two Player Game- Intro Ukulele chords by Misc Soundtrack

Misc Soundtrack guitar chords for Be more chill - two player game- intro ukulele

Guitar chords

Intro:

A|-----2-2-7-2-5-5-4-0-2-----2-2-7-2-5-5-4-9-7-------------------------------------------------|
E|-0-0-------------------0-0-----------------------------------------------------|
C|---------------------------------------------------------------------------|
G|---------------------------------------------------------------------------|

A|-----2-2-7-2-5-5-4-0-2-2-2-0-----------------------------------------------------------|
E|-0-0-------------------------0-2-3-3-3/2---0-----------------------------------------|
C|-----------------------------------------2----------------------------------|
G|---------------------------------------------------------------------------|

Almost there ...

Sign in to get your own page with links to favourite songs and more. You are just one click away...

Login with Facebook Login with Google