Log in

One click and you are in

Login with Facebook Login with Google

Why sign up and log in

Guitar Tabs Explorer
Misc Soundtrack guitar chords for Be more chill - the pitiful children chorus ukulele

Be More Chill - The Pitiful Children Chorus Ukulele chords by Misc Soundtrack

Misc Soundtrack guitar chords for Be more chill - the pitiful children chorus ukulele

Guitar chords

Let's save the pitiful children (whoa-oh)

A|----------------------3-2--|
E|---------------------------|
C|-7--5--3--5-3-0-0-3--------|
G|---------------------------|


Let's save the pitiful children (whoa-oh)

A|----------------------8-6--|
E|---------------------------|
C|-7--5--3--5-3-0-0-3--------|
G|---------------------------|


Let's save the pitiful children, who just haven't a clue, just what to do

A|------------------------------------------------|
E|------------------------------------------------|
C|-7--5--3--5-3-0-0-3--0-0--3-0-3-0--2-2-0-3-2/7--|
G|------------------------------------------------|


He-elp them to he-e-elp you

A|---------------------------|
E|---------------------------|
C|-7-8--7--5--3-5-3-2--0-----|
G|---------------------------|

Almost there ...

Sign in to get your own page with links to favourite songs and more. You are just one click away...

Login with Facebook Login with Google