Log in

One click and you are in

Login with Facebook Login with Google

Why sign up and log in

Guitar Tabs Explorer
Misc Soundtrack guitar tabs for Batman forever theme

Guitar tabs

A chord diagramE MajorE||--------------------|--------------------|-------------------|
A chord diagramBB||--------------------|--------------------|-------------------|
A chord diagramG+G||--------------------|--------------------|-------------------|
A chord diagramD MajorD||--------------------|--------------------|-------------------|
A chord diagramA augmentedA||--11----------------|--10----------------|-------------------|
A chord diagramE MajorE||--------------------|--------------------|--8----------------|

---------------------------|-------------------------|
-----------------------13--|--12---------------------|
-------------------12------|--------13---------------|
--10-----------13----------|--------------13----9----|
---------------------------|-------------------------|
---------------------------|-------------------------|

---------------------------11--|--9--------------------|--9--------------------|
-----------------------13------|-------10--9--8--------|-------10--9--8--------|
-------------------12----------|-----------------------|-----------------------|
--10-----------13--------------|-----------------------|-----------------------|
-------------------------------|-----------------------|-----------------------|
-------------------------------|-----------------------|-----------------------|

----------------------|------------------------|----------------------|
----------------------|------------------------|----------------------|
--13------------------|----------------10--12--|--13------------------|
-------------------9--|--12--------------------|-------------------9--|
----------------------|------------------------|----------------------|
----------------------|------------------------|----------------------|

--------------------|----------------------------|--------------------------|
--------------------|------------------------17--|--16----------------------|
--------------------|--------------------16------|--------17----------------|
--12----------------|--14------------17----------|--------------17----13----|
--------------------|----------------------------|--------------------------|
--------------------|----------------------------|--------------------------|

---------------------------15--|--13----------------------|
-----------------------17------|----------14-13-12--------|
-------------------16----------|--------------------------|
--14-----------17--------------|--------------------------|
-------------------------------|--------------------------|
-------------------------------|--------------------------|

---------------------|--16----------------|----------------------|
---------------15----|--------------------|--17--------16--------|
---------------------|--------------------|----------------------|
---------------------|--------------------|----------------------|
---------------------|--------------------|----------------------|
---------------------|--------------------|----------------------|

--------------------------|--------------------|-------------------------|
--15----------------------|--------------------|--------9----12----------|
--------------------------|---------------9----|--10---------------11----|
--------------------------|--------------------|-------------------------|
--------------------------|--------------------|-------------------------|
--------------------------|--------------------|-------------------------|

--13----------------------|---------------13----|--14------------13----|
--------16--15--14--------|---------------------|----------------------|
--------------------------|---------------------|----------------------|
--------------------------|---------------------|----------------------|
--------------------------|---------------------|----------------------|
--------------------------|---------------------|----------------------|

--14----------------|--16----------------|--17----------------|
--------------------|--------------------|--------------------|
--------------------|--------------------|--------------------|
--------------------|--------------------|--------------------|
--------------------|--------------------|--------------------|
--------------------|--------------------|--------------------|

--------------------|--------------------||
--------------------|--------------------||
--------------------|--17----------------||
--15----------------|--------------------||
--------------------|--------------------||
--------------------|--------------------||

Almost there ...

Sign in to get your own page with links to favourite songs and more. You are just one click away...

Login with Facebook Login with Google