Log in

One click and you are in

Login with Facebook Login with Google

Why sign up and log in

Guitar Tabs Explorer
Misc Soundtrack bass tabs for Barney miller theme

Barney Miller Theme bass tab by Misc Soundtrack

Misc Soundtrack bass tabs for Barney miller theme

Bass tabs

Barney Miller Theme Song
First 16 bars
4/4
   1  2  3  4  1  2  3  4  1  2  3  4  1  2  3  4
G---|----------------|----------------|----------------|----------------|
D---|----------------|----------------|--------------0-|1-0-------3-----|
A---|----------------|------------0-1-|3-----------3---|----3-1-3---3-0-|
E---|1-----------1-3-|5---------------|----------------|----------------|

   1  2  3  4  1  2  3  4  1  2  3  4  1  2  3  4
G---|----------------|----------------|----------------|----------------|
D---|----------------|----------------|--------------0-|1-0-------3-----|
A---|----------------|------------0-1-|3-----------3---|----3-1-3---3-0-|
E---|1-----------1-3-|5---------------|----------------|----------------|

   1  2  3  4  1  2  3  4  1  2  3  4  1  2  3  4
G---|----------------|----------------|----------------|----------------|
D---|----------------|----------------|--------------0-|1-0-------3-----|
A---|----------------|------------0-1-|3-----------3---|----3-1-3---3-0-|
E---|1-----------1-3-|5---------------|----------------|----------------|

   1  2  3  4  1  2  3  4  1  2  3  4  1  2  3  4
G---|----------------|----------------|----------------|----------------|
D---|----------------|----------------|--------------0-|1-0-------3-----|
A---|----------------|------------0-1-|3-----------3---|----3-1-3---3-0-|
E---|1-----------1-33|5---------------|----------------|----------------|

Almost there ...

Sign in to get your own page with links to favourite songs and more. You are just one click away...

Login with Facebook Login with Google