Log in

One click and you are in

Login with Facebook Login with Google

Why sign up and log in

Guitar Tabs Explorer
Misc Soundtrack guitar tabs for Back to the future 3

Guitar tabs with lyrics

Selected pieces from "Back To The Future Part III"
Composed by Alan Silvestri
Originally performed by the Outatime Orchestra
Taken from the BTTF3 movie soundtrack (1990)

I have arranged this for guitar.

"At First Sight" (that bit starting 1:43 in)
Pretty slow, originally played on flute/piccolo
Repeat the first bit a few times, changing the last note each time...

E:------------------------------- --------------------
b:-------1----------------------- --------------------
g:-0-0-0---0-0-0-------------(3)- -------5-3-2-0-2-3--
d:---------------2-3-3-3--2-3---- -3-3-3--------------
a:------------------------------- --------------------
e:------------------------------- --------------------
"The Kiss"
Almost identical to the above, but played on a harp
You could maybe play it 12 frets up as well.

E:------------------------------- -----------------------------------
b:------------------------------- -----------------------------------
g:-------0----------------------- -------0-----------------------2-0-
d:-0-0-0---0-0-0--------------3-- -0-0-0---0-0-0-----------0-2-4---0-
a:---------------2-3-3-3--2-3---- ---------------2---0-2-3-----------
e:------------------------------- -----------------3-----------------


"We're Out Of Gas" (the fanfare one in the trailer and end credits)
Originally on horns- if it's doubled in places by bass, it sounds good

E:------------------------------- -------------------------------
b:------------------------------- -------------------------------
g:--0-0-0-----5--2--0-0-0-------- --0-0-0-----5--2--0-0-0--------
d:--------2-0-------------2---0-- --------2-0-------------2-0----
a:--------------------------3---- ----------------------------3--
e:------------------------------- -------------------------------


The electric version of Doubleback by ZZ Top can be found
elsewhere in this archive, but the acoustic version has a
violin part as follows:

E:---------------------------------------------------
b:---------------------------------------------------
g:--5-3-5s3-0-0--5-3-5s3-0-0--2-0-2-3-2-0-2-3-2-0-2--
d:---------------------------------------------------
a:---------------------------------------------------
e:---------------------------------------------------


Comments/slagging can be directed to me at
the email address found at the following:

http://www.geocities.com/kesmaster.geo

Almost there ...

Sign in to get your own page with links to favourite songs and more. You are just one click away...

Login with Facebook Login with Google