Log in

One click and you are in

Login with Facebook Login with Google

Why sign up and log in

Guitar Tabs Explorer
Misc Soundtrack guitar chords for Avatar the last airbender - avatars love ukulele

Avatar The Last Airbender - Avatars Love Ukulele chords by Misc Soundtrack

Misc Soundtrack guitar chords for Avatar the last airbender - avatars love ukulele

Guitar chords

  • Capo on 2nd
Tuning: G C E A (G C E A)

Difficulty: Novice

Capo the second fret

 Intro:
A|-------4-------5-------9--------10--9--|
E|----2--2----3--3----5--5-----7--7---7--|
C|-2-----2--4----4--6----6--7-----7---7--|
G|-------2-------2-------2--------7---7--|

 Part 2:
A|-5--4--------5--4-------5--4-------5--4-------|
E|----------2----------2----------2-----------2-|
C|-2-----------2----------2----------2----------|
G|-------2-----------2----------2----------2----|

A|-------2-----------2-----------2----------------|
E|-3--2--------3--2--------3--2--------3--2-------|
C|-2--------2--2--------2--2--------2--2-----4--2-|
G|------------------------------------------------|

-Play part 2 twice-

 Part 3:
A|-------2--4--5--7--9--5--9--12--12--5--9--4-|
E|-3--5---------------------------------------|
C|--------------------------------------------|
G|--------------------------------------------|

A|-2--2--2--4--5--7--9--10-----------10-----10-|
E|-3--3--3--5--5--2--2--7---7-----7---------7--|
C|-2--2--2--2--2--2--2--7----------------7--7--|
G|-4--4--4--2--2--2--2--7------7------------7--|

A|-12-----------12--12--------------------5--4--------5--4--------5--4--------5-|
E|-9---9-----9------9---2--7--5--2--7--5--2--------2--2--------2--2--------2--2-|
C|-9----------------9---------------------2-----------2-----------2-----------2-|
G|-9------9---------9---------------------2-----2-----2-----2-----2-----2-----2-|

↓ Add and view comments below ↓

What do you think about this song and these chords?

Add your comments, questions, rant or a thumbs up below.

Almost there ...

Sign in to get your own page with links to favourite songs and more. You are just one click away...

Login with Facebook Login with Google