Log in

One click and you are in

Login with Facebook Login with Google

Why sign up and log in

Guitar Tabs Explorer
Misc Soundtrack guitar tabs for Avatar - i see you

Guitar tabs

A chord diagramE MajorE ||----------------|           R||---------------|--5-------------|--9-----10-9----|--7------------||
A chord diagramBB ||----------------|           A chord diagramE MajorE||-8-------------|--5-------------|--5-------------|---------------||
A chord diagramG+G ||--------9-------|           P||-------7-------|--------7-------|----------------|--------9------||
A chord diagramD MajorD ||-----9----------|           .||----9----------|-----7----------|-----7----------|-----9---------||
A chord diagramA augmentedA ||--7-------------|           2||-7-------------|--5-------------|----------------|--7------------||
A chord diagramE MajorE ||----------------|           x||---------------|----------------|--5-------------|---------------||
|--12----------14---12---|--11----------12---11---|
|------------------------|------------------------|
|------------------------|------------------------|
|--------11--------------|--------9---------------|
|------------------------|------------------------|
|--9---------------------|--7---------------------|


|--9-----5-------|--9-----11------|--12---------|--7-----9----|--10------|--8-------|
|----------------|----------------|--------8----|-------------|----------|--5-------|
|----------------|----------------|-----9-------|-------------|----------|----------|
|-----7-----7----|-----7-----7----|-------------|-------------|----------|----------|
|----------------|----------------|-------------|-------------|----------|----------|
|--5-------------|----------------|--9----------|--3----------|--7-------|--5-------|


|--15------------|--17------------|--9-----10-9----|
|--------17------|----------------|--5-------------|
|-----16----16---|--------14------|----------------|
|--17------------|-----14----11---|-----7----------|
|----------------|--12------------|----------------|
|----------------|----------------|--5-------------|


|--7-------------|--12----------14----12------|--11----------12----11------|
|----------------|----------------------------|----------------------------|
|--------9-------|----------------------------|----------------------------|
|-----9----------|--------11------------------|--------9-------------------|
|--7-------------|----------------------------|----------------------------|
|----------------|--9-------------------------|--7-------------------------|


|--9-----5-------|--9-----11------|--12------------|--14----12------|
|----------------|----------------|--------9-------|----------------|
|----------------|----------------|-----9-----9----|-----11----11---|
|-----7-----7----|-----7-----7----|----------------|----------------|
|----------------|----------------|----------------|----------------|
|--5-------------|----------------|--9-------------|----------------|


|--11------------|--12----11------|--9-------------|----------------|-------|--12---||
|--------0-------|----------------|--------0-------|--9-----7-------|--5----|-------||
|-----11----11---|-----11----11---|-----9-----9----|--9--9--9--9----|-------|-------||
|--9-------------|--9-------------|--7-------------|--7-------------|-------|-------||
|----------------|----------------|----------------|----------------|-------|-------||
|----------------|----------------|----------------|----------------|--0----|-------||


It's my first tab, and probably it's not 100% correct. Leave a comment or message, if
you can improve/fix something :)

Other versions of Avatar - I See You

Avatar - I see youChords

Almost there ...

Sign in to get your own page with links to favourite songs and more. You are just one click away...

Login with Facebook Login with Google