Log in

One click and you are in

Login with Facebook Login with Google

Why sign up and log in

Guitar Tabs Explorer
Misc Soundtrack guitar tabs for A whole new world

Guitar tabs

e|-----------------------------------------------|
B|-3-1-4-3---3-1-4-3-3-1--1-0-3-1-1----------1-3-|
G|--------3---------3------------2-3-2-3-0-3--3--|
D|---------3-------------------------------------|
A|-----------------------------------------------|
E|-----------------------------------------------|


e|-----------------------------------------------|
B|-3-1-4-3---3-1-4-3-3-11-1-0-3-1-1---------1-3--|
G|--------3---------3------------2-3-2-3-0-3-3---|
D|---------3-------------------------------------|
A|-----------------------------------------------|
E|-----------------------------------------------|


e|-----3-1-----3-1--------------1-5-3-1---5-6-1--|
B|-3-4-----3-4-----1-4-3-3--3-4------------------|
G|--------------------------------------3--------|
D|-----------------------------------------------|
A|-----------------------------------------------|
E|-----------------------------------------------|


e|-----------------------------------------------|
B|--3-1-1-1-4------------------------------------|
G|-3---3-----------------------------------------|
D|-----------------------------------------------|
A|-----------------------------------------------|
E|-----------------------------------------------|

Almost there ...

Sign in to get your own page with links to favourite songs and more. You are just one click away...

Login with Facebook Login with Google