Log in

One click and you are in

Login with Facebook Login with Google

Why sign up and log in

Guitar Tabs Explorer
Misc Soundtrack guitar tabs for A team

Guitar tabs

TV Theme

Tempo : 120


      |---3---|  |---3---|  |---3---|
      S   S   S  S   S   S  S   S   S  T   T   T  T
E||----------------------------------------------12S-|
B||-----------------------------------11h-13h-15-----|
G||------------------------10h-12h-14----------------|
D||-------------10h-12h-14---------------------------|
A||--10h-12h-13--------------------------------------|
E||--------------------------------------------------|
   Q     A chord diagramE MajorE   A chord diagramE MajorE   H            A chord diagramE MajorE   Q     A chord diagramE MajorE   Q.      S   S
--13--------13---L--------|-------------------------------|
--------13----------------|--11--13----------------10h-13-|
--------------------------|------------10---L-------------|
--------------------------|-------------------------------|
--------------------------|-------------------------------|
--------------------------|-------------------------------|


   A chord diagramE MajorE   A chord diagramE MajorE    A chord diagramE MajorE   A chord diagramE MajorE   H            E.   S  S  E.   H
--13------/15--13---L--------|--11---10-------------------|
------13---------------------|----------13-11---13--------|
-----------------------------|----------------------------|
-----------------------------|----------------------------|
-----------------------------|----------------------------|
-----------------------------|----------------------------|


   E.   S  A chord diagramE MajorE   A chord diagramE MajorE   H            A chord diagramE MajorE   Q     A chord diagramE MajorE   H
--13---13-----13---L--------|--------------------------|
----------13----------------|--10--11----13------------|
----------------------------|----------------10--------|
----------------------------|--------------------------|
----------------------------|--------------------------|
----------------------------|--------------------------|

  E.   S A chord diagramE MajorE   A chord diagramE MajorE   H           A chord diagramE MajorE  Q    A chord diagramE MajorE  H
---------9--11---L--------|----------------------|
--9---11------------------|----------------------|
--------------------------|--1--3----------------|
--------------------------|----------1--L--------|
--------------------------|----------------------|
--------------------------|----------------------|


   E.     S A chord diagramE MajorE   A chord diagramE MajorE   Q      Q        E.   S  A chord diagramE MajorE   A chord diagramE MajorE   H
--10br----L--------10b----10----|--------------13---L--------|
---------------11---------------|--10---11-13----------------|
--------------------------------|----------------------------|
--------------------------------|----------------------------|
--------------------------------|----------------------------|
--------------------------------|----------------------------|


   E.     S A chord diagramE MajorE   A chord diagramE MajorE   Q      Q        A chord diagramE MajorE     A chord diagramE MajorE   A chord diagramE MajorE    A chord diagramE MajorE   H
--18br----L--------18b----18----|--17br---L---------------------|
---------------18---------------|------------18p--17--18--------|
--------------------------------|-------------------------------|
--------------------------------|-------------------------------|
--------------------------------|-------------------------------|
--------------------------------|-------------------------------|


    A chord diagramE MajorE  A chord diagramE MajorE  A chord diagramE MajorE  A chord diagramE MajorE  A chord diagramE MajorE  A chord diagramE MajorE  A chord diagramE MajorE  A chord diagramE MajorE     A chord diagramE MajorE  Q    A chord diagramE MajorE   Q     Q
|---------------------------|-------------------------|
|---------------------------|-------------------------|
|*--7--7--5--7-----5-----7--|-----5----5--12----10----|
|*--7--7--5--7-----5-----7--|-----5----5--12----10----|
|---5--5--3--5-----3-----5--|-----3----3--10-----8----|
|---------------------------|-------------------------|


  A chord diagramE MajorE  A chord diagramE MajorE  A chord diagramE MajorE  A chord diagramE MajorE  A chord diagramE MajorE  A chord diagramE MajorE  A chord diagramE MajorE  A chord diagramE MajorE     A chord diagramE MajorE  Q    A chord diagramE MajorE  H
--------------------------|-----------------------||
--------------------------|-----------------------||
--7--7--5--7-----5-----3--|-----3----3--5--------*||
--7--7--5--7-----5-----3--|-----3----3--5--------*||
--5--5--3--5-----3-----1--|-----1----1--3---------||
--------------------------|-----------------------||


             |--3--| |---3--| |---3--|
  A chord diagramE MajorE  Q    A chord diagramE MajorE  S  S  S S  S   S S  S   S T  T   T T    W
--------------------------------------------------|-------------------|
------------------------------------------------8-|--9----------------|
--3--3----3----------------------------6h-8h-10---|-------------------|
--3--3----3-------------------6h-8h-10------------|-------------------|
--1--1----1----------6h-8h-10---------------------|-------------------|
-------------6h-8h-9------------------------------|-------------------|


                                            PM PM  PM  PM  PM  PM
  A chord diagramE MajorE  A chord diagramE MajorE    A chord diagramE MajorE   A chord diagramE MajorE      Q     H        Q       A chord diagramE MajorE  A chord diagramE MajorE   A chord diagramE MajorE   A chord diagramE MajorE   A chord diagramE MajorE   A chord diagramE MajorE   A chord diagramE MajorE    A chord diagramE MajorE
-----------------|-----------------------|---------------------------------|
--L----------11--|--/9--------------9----|--------------------11--18p--16--|
-----------------|--------10-------------|--8-------------10---------------|
-----8h--11------|-----------------------|------------10-------------------|
-----------------|-----------------------|-----8--11-----------------------|
-----------------|-----------------------|---------------------------------|


   W                    A chord diagramE MajorE   A chord diagramE MajorE     A chord diagramE MajorE   A chord diagramE MajorE   Q     Q
--------------------|--------------------------------|
---L----------------|---L----------------------------|
--------------------|------16br---L--15--16----13----|
--------------------|--------------------------------|
--------------------|--------------------------------|
--------------------|--------------------------------|


                               |---3---|
   A chord diagramE MajorE     A chord diagramE MajorE  A chord diagramE MajorE   A chord diagramE MajorE  S  S  S   S S   S   S  T   T   T  T
--------------------------------------------------------|
----------------------------------------------------11h-|
--10br---L--8----------------------------10h-11h-13-----|
---------------11--9p-8h-9h-11-9h-11h-13----------------|
--------------------------------------------------------|
--------------------------------------------------------|


                         |---3---|
   H        S S   S   S  S   S   S  T  T  T  T     A chord diagramE MajorE     Q     A chord diagramE MajorE   Q      Q
--------------------------------------------11-|--17br---L--------17b----17----|
--12-------------------------------11-12-14----|--------------18---------------|
------------------------10h-11h-13-------------|-------------------------------|
--------------9h-11h-13------------------------|-------------------------------|
-----------------------------------------------|-------------------------------|
-----------------------------------------------|-------------------------------|


                                 >
   Q     Q     A chord diagramE MajorE   A chord diagramE MajorE    Q        Q     H.              W
--15----20----22--22b---L----|--22b-----------------|-------------------|
--------22----18--17----L----|--18------------------|-------------------|
-----------------------------|----------------------|-------------------|
-----------------------------|----------------------|-------------------|
-----------------------------|----------------------|-------------------|
-----------------------------|----------------------|-------------------|


  W                   W
-------------------|-------------------||
-------------------|-------------------||
-------------------|-------------------||
-------------------|-------------------||
-------------------|-------------------||
-------------------|-------------------||

Almost there ...

Sign in to get your own page with links to favourite songs and more. You are just one click away...

Login with Facebook Login with Google