Log in

One click and you are in

Login with Facebook Login with Google

Why sign up and log in

Guitar Tabs Explorer
Misc Soundtrack guitar tabs for A star is born - music to my eyes

A Star Is Born - Music To My Eyes tab by Misc Soundtrack

Misc Soundtrack guitar tabs for A star is born - music to my eyes

Intro

Tuning: Standard (E A D G B E)


Intro:
(let ring)
   A chord diagramD MajorD           A chord diagramD augmentedDaug          A chord diagramD6D6          A chord diagramD7D7
e|-------------------------|-------------------------|
B|---------3-----------3---|---------3-------3-------|
G|-2---------2-3-----------|-4-----------5-------5---|
D|-------------------------|-------------------------|
A|-------------------------|-------------------------|
E|-------------------------|-------------------------|

   A chord diagramG MajorG           A chord diagramE7E7            A chord diagramD MajorD
e|-------3-------------0---|-2-----------------------|
B|-----3---3---------3-----|-3-----------------------|
G|-----------------4-------|-2-----------------------|
D|-------------------------|-0-----------------------|
A|-------------------------|-------------------------|
E|-3-----------0-----------|-------------------------|

Other versions of A Star Is Born - Music To My Eyes

A star is born - music to my eyesChords

Almost there ...

Sign in to get your own page with links to favourite songs and more. You are just one click away...

Login with Facebook Login with Google