Log in

One click and you are in

Login with Facebook Login with Google

Why sign up and log in

Guitar Tabs Explorer
Misc Soundtrack guitar tabs for A star is born - maybe its time

A Star Is Born - Maybe Its Time tab by Misc Soundtrack

Misc Soundtrack guitar tabs for A star is born - maybe its time

Guitar tabs with lyrics

Bradley Cooper


Tuning: Standard (E A D G B E)

Key: A chord diagramG MajorG

Difficulty: Intermediate
Intro:

e|-----------------------------------------------------------|
B|---0-------0-------0-------------0-------0---------0-------|
G|-------0-------0---------------0---0-----0----0--------0---|
D|-----0---0---0---0---0---0-0h2-------2p0----0---0----0---0-|
A|-----------------------------------------------------------|
E|-3---------------------3-----------------------------------|


Verse - I can’t be quite certain on this part but I think it’s pretty close.

e|-------------------------------|
B|---------0-------0-------0-----|
G|-----0-------0-------0-----0---|
D|---0---0---0---0---0---0-----0-|
A|-------------------------------| x2
E|-3-----------------------------|

   Maybe it’s time to let the old ways die

e|---------------------------------------------------------------|
B|---------1-------1-------1-----1---------3-------3-------3-----|
G|-----0-------0-------0-----0---------0-------0-------0-----0---|
D|---2---2---2---2---2---2-----2-----0---0---0---0---0---0-----0-|
A|-3-------------------------------------------------------------|
E|---------------------------------3-----------------------------|

   Maybe it’s time to let the old ways die

e|---------------------------------------------------------------|
B|----------1-------1------1-------------3---------------3-------|
G|-----0-------0-------0-----0-------0-------0-------0-------0---|
D|---2---2---2---2---2---2-----2---0---0---0---0---0---0---0---0-|
A|-3-------------------------------------------------------------|
E|-------------------------------3---------------2---------------|

   It’s takes a lot to change a man, hell it takes a lot to try

e|-------------------------2--------------------------|
B|---------3-----------3-------3-----------0h1--------|
G|-----0-------0-----2---2---2---2-----0---------0----|
D|---2---2---2---2-0-----------------2---2-----2---2--|
A|---------------------------------3------------------|
E|-0--------------------------------------------------|

                     Maybe it’s time to let the old ways die

e|-------------------------------|
B|---------3-------3-------3-----|
G|-----0-------0-------0-----0---|
D|---0---0---0---0---0---0-----0-|
A|-------------------------------| x2
E|-3-----------------------------|

   Nobody knows what waits for the dead (Second Time)

e|-----------------------------------------0--------------|
B|-----------3---------------------1---------------3------|
G|---------0---0---------------0-------0-------0-----0----|
D|-----0h2-------2p0---------2---2---2---2---2---2-----2--|
A|---2---------------2---2-3------------------------------|
E|-3-------------------3----------------------------------|

                           Nobody knows what waits for the dead

e|----------------------------------------0-----------------|
B|---3-------3-------3------------1---------------3-------3-|
G|---0-0---------2------------0-------0-------0-------0-----|
D|-----0h2p0---0---0--------2---2---2---2---2---2---2---2---|
A|-2-------------------2--3---------------------------------|
E|-3--------------------------------------------------------|

                            Some folks just believe in the things they’ve

e|-------------------------------------|
B|-------3--------3----------0h3-------|
G|-----0--------0--------0-------0-----|
D|---0--------0--------2---2-------2p0-|
A|-------------------------------------|
E|-3--------2--------0-----------------|

     Heard and things they read

e|---------0h2---------------------------------------------------|
B|-----3-------3-----------0h1-------------0-------0-------0-----|
G|---2---2-------2-----0-------0-------0-------0-------0-----0---|
D|-0-----------------2---2-------2---0---0---0---0---0---0-----0-|
A|-----------------3---------------------------------------------|
E|---------------------------------3-----------------------------|

   Nobody knows what waits for the dead

e|-------------------------------------------------------------|
B|---------1-------1-------1-------------3-------3-------3-----|
G|-----0-------0-------0-----0-------0-------0-------0-----0---|
D|---2---2---2---2---2---2-----2---0---0---0---0---0---0-----0-|
A|-3-----------------------------------------------------------|
E|-------------------------------3-----------------------------|

   I’m glad I can’t go back to where I came from

e|---------------------------------------3---------------3-----|
B|---------3-------3-------3-----------------------------------|
G|-----0-------0-------0-----0-------0-------0---0---0-----0---|
D|---2---2---2---2---2---2-----2---0---0---0---0---0---0-----0-|
A|-3-----------------------------------------------------------|
E|-------------------------------3-----------------------------|

    I’m glad those days are gone, gone for good

e|-----------------------------------------------------------------|
B|---------1-------1-------1-------3--------3----------3-----------|
G|-----0-------0-------0---------0--------0--------0-------0---0---|
D|---2---2---2---2---2---2-----0--------0--------0---0---0---0---0-|
A|-3---------------------------------------------------------------|
E|---------------------------3--------2--------0-------------------|

   But if I could take spirits from my past and bring them here you know I

e|---------2-------2----------------------------0---------------|
B|-----3-------3---3---3---3------------1---------1-0h1p0-------|
G|---2---2---2---2---2---2-2-2------0-------0-------------0-----|
D|-0------------------------------2---2---2---2-------------2---|
A|------------------------------3-----------------------------3-|
E|--------------------------------------------------------------|

    Would                  You know I would

e|---------3-------3-------3------------3-------3-------3-------|
B|--------------------------------------------------------------|
G|-----0-------0-------0-----0----------------------------------|
D|---0---0---0---0---0---0-----0------------0-------0-----0-----|
A|----------------------------------2-----2-------2-----------2-|
E|-3------------------------------3---3-------3-------3-----3---|

    Nobody speaks to God these days

e|---------------------------------------3-------3-------3-------|
B|---------1-------1-------1-----------------3-------3-----3-----|
G|-----0-------0-------0-----0-------0-----0-------0-------------|
D|---2---2---2---2---2---2-----2---0---0-------0-------0-----0h2-|
A|-3-------------------------------------------------------------|
E|-------------------------------3-------------------------------|

   Nobody speaks to God these days

e|-----------------0-------------------------------------------|
B|---------3---------------1p0--------3-------3----------3-----|
G|-----0-------0-------0------------0-------0--------0-------0-|
D|---2---2---2---2---2---2--------0-------0--------2---2---2---|
A|-3-----------------------------------------------------------|
E|------------------------------3-------2--------0-------------|

   I’d like to think he’s lookin’ down and laughin’ at our ways

e|---------2---------------------------3---------------------|
B|-----3-----3--------1p0--------------3-------3-------3-----|
G|---2---2-----2------------0------0-------0-------0-----0---|
D|-0----------------2-----2------0---0---0---0---0---------0-|
A|----------------3------------2-----------------------------|
E|-----------------------------3---------------------3-------|

   Nobody speaks to God these days

e|----------------------------------------------------3-------------|
B|---------1h3-------3-----1-0h1p0------------3---------------3-----|
G|-----0---------0-------0---------0------0-------0-------0-----0---|
D|---2---2-----2---2---2----------------0---0---0---0---0---0-----0-|
A|-3----------------------------------------------------------------|
E|------------------------------------3-----------------------------|

    When I was a child, they tried to fool me

e|-----------------0-------------------------------------------|
B|---------1---------------1-------------0-------0-------0-----|
G|-----0-------0-------0-------0-----0-------0-------0-------0-|
D|---2---2---2---2---2---2---2-----0---0---0---0---0---0---0---|
A|-3-----------------------------------------------------------|
E|-------------------------------3-----------------------------|

   Said the worldly man was lost and that Hell was real

e|-----------------0---------------------------------------------|
B|---------1---------------1------------3-------3----------3-----|
G|-----0-------0-------0-------0------0-------0--------0-------0-|
D|---2---2---2---2---2---2---2------0-------0--------2---2---2---|
A|-3-------------------------------------------------------------|
E|--------------------------------3-------2--------0-------------|
But I’ve seen Hell in Reno, and this world’s one big old Catherine

e|---------2-------3-------2------------------------------------------|
B|-----3-------3-------3-----3------------1-------0h1p0-------1-------|
G|---2---2---2---2---2---2-----2------0-------0-----------0-------0---|
D|-0--------------------------------2---2---2---2-------2---2---2---2-|
A|--------------------------------3-----------------------------------|
E|--------------------------------------------------------------------|

   Wheel                           Spinnin’ steel

e|---------------------------3---------3-------3---------------|
B|---------3---------3-------3---------3-------3-------3-------|
G|-----0-------0---------0---------0-------0-------0-----0-----|
D|---0---0---0---0h2---0---0-----0---0---0---0---0---0-----0---|
A|-----------------------------------------------------------2-|
E|-3---------------------------3-------------------------------|

    Maybe it’s time to let the old ways die

e|-----------------0---------------------3---------3-----------|
B|---------3---------------3---------------3-----------3-------|
G|-----0-------0-------0-----0-------0-------4p2---------------|
D|---2---2---2---2---2---2-----2---0---0-----2p0-0---0-----2h4-|
A|-3-------------------------------------------------------0h2-|
E|-------------------------------3-----------------------3-----|

   Maybe it’s time to let the old ways die

e|-----------------0----------------------------------------------|
B|---------1---------------0h1--------3-------3-----------3-------|
G|-----0-------0-------0------------0-------0---------0-------0---|
D|---2---2---2---2---2---2--------0-------0---------2---2---2---2-|
A|-3--------------------------------------------------------------|
E|------------------------------3-------2--------0----------------|

   It takes a lot to change your plans and a train to change your mind

e|---------0h2p0------------------------------3---------------3--|
B|-----3---------3-----------0h1----------------------0----------|
G|---2---2---------2-----0-------0--------0-------0-------0------|
D|-0-------------------2---2-------2----0---0---0---0---0--------|
A|-------------------3-------------------------------------------|
E|------------------------------------3---------------------3----|

    Maybe it’s time to let the old ways die

e|---------0h2-----------------------------------3-|
B|-----3-------3--------------0h1-----------3------|
G|---2---2-------2------0--------------0-----------|
D|-0------------------2---0h2----------------------|
A|------------------3------------------------------|
E|---------------------------------3---------------|

Oh, maybe it’s time to let the old ways die


***********************************

| h  Hammer-on
| p  Pull-off

***********************************

Other versions of A Star Is Born - Maybe Its Time

A star is born - maybe its timeChords
A star is born - maybe its time (Ver. 2)Chords

Almost there ...

Sign in to get your own page with links to favourite songs and more. You are just one click away...

Login with Facebook Login with Google