Log in

One click and you are in

Login with Facebook Login with Google

Why sign up and log in

Guitar Tabs Explorer
Misc Soundtrack guitar tabs for A star is born - black eyes

A Star Is Born - Black Eyes tab by Misc Soundtrack

Misc Soundtrack guitar tabs for A star is born - black eyes

Guitar tabs

Tuning: Standard (E A D G B E)

Key: A chord diagramE minorEm

Difficulty: Novice
Intro:
e|---------------------------------------------------------------------------|
B|---------------------------------------------------------------------------|
G|---7b9-9-9-9-9-9-9-9-9-9-9-9-9-9-9-9-9-9-9-9-------------------------------|
D|---------------------------------------------------------------------------|
A|---------------------------------------------------------------------------|
E|---------------------------------------------------------------------------|

e|---------------------------------------------------------------------------| x4
B|---------------------------------------------------------------------------|
G|---------------------------------------------------------------------------|
D|---------------------------------------------------------------------------|
A|----------------------5-4--------------------------------------------------|
E|--0----0--3--5--0-3-5-----5-3----------------------------------------------|


Verse:
Bass plays same riff as Cooper comes in

Lyrics:
Black eyes open wide
It’s time to testify
There’s no room for lies
And everyone’s waitin' for you


Chorus:
e|---------------------------------------------------------------------------|
B|---------------------------------------------------------------------------|
G|---------------------------------------------------------------------------|
D|---------------------------------------------------------------------------|
A|----5-5-5-5-5-5-5-4-4-4-4-4-4-4--------------------------------------------|
E|----3-3-3-3-3-3-3-2-2-2-2-2-2-2--------------------------------------------|

And I'm gone sittin' by the phone and I'm all alone by the wayside

e|---------------------------------------------------------------------------| x2
B|---------------------------------------------------------------------------|
G|---------------------------------------------------------------------------|
D|---------------------------------------------------------------------------|
A|----------------------5-4--------------------------------------------------|
E|--0----0--3--5--0-3-5-----5-3----------------------------------------------|

And I'm gone sittin' by the phone and I'm all alone by the wayside

e|---------------------------------------------------------------------------|
B|---------------------------------------------------------------------------|
G|---------------------------------------------------------------------------|
D|---------------------------------------------------------------------------|
A|----5-5-5-5-5-5-5-4-4-4-4-4-4-4--------------------------------------------|
E|----3-3-3-3-3-3-3-2-2-2-2-2-2-2--------------------------------------------|

e|---------------------------------------------------------------------------| x10
B|---------------------------------------------------------------------------|
G|---------------------------------------------------------------------------|
D|---------------------------------------------------------------------------|
A|----------------------5-4--------------------------------------------------|
E|--0----0--3--5--0-3-5-----5-3----------------------------------------------|

Solo in A chord diagramE minorEm Pentatonic

Bass plays riff

Lyrics:

By the wayside
I'm by the wayside
I'm by the wayside

Too far gone and I'm by the phone
And I'm all alone and I'm off alone by the wayside

I'm by the wayside
I'm by the wayside
I'm by the wayside

e|---------------------------------------------------------------------------| x10
B|---------------------------------------------------------------------------|
G|---------------------------------------------------------------------------|
D|---------------------------------------------------------------------------|
A|----------------------5-4--------------------------------------------------|
E|--0----0--3--5--0-3-5-----5-3----------------------------------------------|


************************************

| b  Bend

************************************

Almost there ...

Sign in to get your own page with links to favourite songs and more. You are just one click away...

Login with Facebook Login with Google