Guitar Tabs Explorer
Misc Soundtrack bass tabs for A star is born - black eyes

A Star Is Born - Black Eyes bass tab


Be the first to rate

A Star Is Born - Black Eyes bass tab by Misc Soundtrack

Bass tabs

Print
Tuning: Standard (E A D G)

This song slaps, hope y'all enjoy

Intro:

G|---------------------------------------------------------------------------|
D|---------------------------------------------------------------------------|
A|----------------------------------------------------5-4--------------------|
E|x-x-x-x-x-x-x-x-0-0-0-0-0-0-0-0-0-0-0-0--0-03h5-3-5-----7-5----------------|

G|---------------------------------------------------------------------------|
D|---------------------------------------------------------------------------|
A|------------5-4----------------5-4----------------5-4----------------------|
E|0-03h5-3-5-----7-5-0-03h5-3-5-----7-5-0-03h5-3-5-----7-5-------------------|


Verse:

G|---------------------------------------------------------------------------|
D|---------------------------------------------------------------------------|
A|------------5-4----------------5-4----------------5-4---------------5-4----|
E|0-03h5-3-5-----7-5-0-03h5-3-5-----7-5-0-03h5-3-5-----7-5-0-03h5-3-5-----7-5|

Pre-Chorus:

G|---------------------------------------------------------------------------|
D|---------------------------------------------------------------------------|
A|---------------------------------------------------------------------------|
E|3-3-3-3-3-3-3-3-2-2-2-2-1--------------------------------------------------|


Chorus:

G|---------------------------------------------------------------------------|
D|---------------------------------------------------------------------------|
A|------------5-4----------------5-4-----------------------------------------|
E|0-03h5-3-5-----7-5-0-03h5-3-5-----7-5-3-3-3-3-3-3-3-3-2-2-2-2-1------------|

G|---------------------------------------------------------------------------|
D|---------------------------------------------------------------------------|
A|------------5-4----------------5-4-----------------------------------------|
E|0-03h5-3-5-----7-5-0-03h5-3-5------7-5-------------------------------------|



Solo/Bridge:

G|---------------------------------------------------------------------------|
D|---------------------------------------------------------------------------|
A|------------5-4----------------5-4----------------5-4---------------5-4----|
E|0-03h5-3-5-----7-5-0-03h5-3-5-----7-5-0-03h5-3-5-----7-5-0-03h5-3-5-----7-5|

G|---------------------------------------------------------------------------|
D|---------------------------------------------------------------------------|
A|------------5-4----------------5-4----------------5-4---------------5-4----|
E|0-03h5-3-5-----7-5-0-03h5-3-5-----7-5-0-03h5-3-5-----7-5-0-03h5-3-5-----7-5|


Repeat main riff until the end.



************************************

| x  Dead note
| h  Hammer-on

************************************

Comment this song and these bass tabs

Do you have corrections, comments on the bass tabs, thoughts about the song or a message to the author? Write them below.