Log in

One click and you are in

Login with Facebook Login with Google

Why sign up and log in

Guitar Tabs Explorer
Misc Soundtrack guitar tabs for A fistful of dollars

Guitar tabs

Per un Pugno di Dollari', or...

A chord diagramA augmentedA FISTFUL OF DOLLARS
by Ennio Morricone (tabbed by Richard Magrath LtRicardo@aol.com)

Main theme:

E------------------------------------
B--------6-7-9-7-6-------------------
G--6-8---------------8-6~~---6~~-----
D--------------------------8-----8~~-
A------------------------------------
E------------------------------------

E------------------------------------
B--------6-7-9-7-6-------------------
G--6-8---------------8-6~~---6~~-8~~-
D--------------------------8---------
A------------------------------------
E------------------------------------

Almost there ...

Sign in to get your own page with links to favourite songs and more. You are just one click away...

Login with Facebook Login with Google