Log in

One click and you are in

Login with Facebook Login with Google

Why sign up and log in

Guitar Tabs Explorer
Misc Soundtrack guitar tabs for A clockwork orange theme

A Clockwork Orange Theme tab by Misc Soundtrack

Misc Soundtrack guitar tabs for A clockwork orange theme

Guitar tabs

A chord diagramA augmentedA Clockwork Orange
Guitar arrangement and
tabbed by Meloz Shaker

A chord diagramE MajorE||--3-----------------4-----|-----4-----6--3-----------|
A chord diagramBB||-----------5--------------|--6-----6--------------5--|
A chord diagramG+G||--------5-----5--------5--|-----5--------------5-----|
A chord diagramD MajorD||-----5-----------5--3-----|-----------------5--------|
A chord diagramA augmentedA||--3-----------------------|--------------3-----------|
A chord diagramE MajorE||--------------------------|--------------------------|

--------------------------|--------------------8-----|
-----------------5--------|--8--------8--------------|
--5-----------5-----5-----|--------5-----5--------8--|
-----5-----5-----------5--|-----5-----------5--------|
--------3-----------------|--6-----------------------|
--------------------------|--------------------4-----|


-----8-----10--7--------7--|-----------------8--------|
--8------------------8-----|--8-----------8--------8--|
--------8---------7--------|-----7-----7--------7-----|
-----6---------5-----------|--------5--------7--------|
---------------------------|--------------------------|
---------------------------|--------------------------|


--10--------10--------8-----|------5--------6--------6--|
---------8------8-----------|--10--------7--------8-----|
------7------------7-----8--|---------7--------7--------|
----------------------------|---------------5-----------|
----------------------------|------5--------------------|
--6-------------------8-----|---------------------------|


-----------------6--------|--6--------6--------4-----|
--8-----------8-----8-----|--------8-----8-----------|
-----7-----7-----------7--|-----8-----------8-----5--|
--------5-----------------|--------------------6-----|
--------------------------|--6-----------------------|
--------------------------|--------------------------|


--------------------------|-----------------------6--|
--6--6-----6--8--------8--|-----------------8--------|
--------7-----------8-----|--8-----------8-----8-----|
-----8-----------8--------|-----8-----8--------------|
--------------6-----------|--------6-----------------|
--------------------------|--------------------------|


--8--------8--------8-----|-----7--------8--------8--|
--------8-----8-----------|--9--------8--------8-----|
-----8-----------8-----7--|--------7--------8--------|
--------------------------|-----5--------------------|
--------------------8-----|--------------------------|
--8-----------------------|--------------8-----------|


-------------------------------------|--8--------8--------8-----|
--8-------------9--------------8-----|--------8-----8-----------|
-----8-------10---10---------7---7---|-----8-----------8-----7--|
----------10---------10----9-------9-|--------------------------|
--------8---------------10-----------|--------------------8-----|
-------------------------------------|--8-----------------------|


-----7--------8--------8--|-----------------8--------|
--9--------8--------8-----|--8-----------8-----8-----|
--------7--------9--------|-----9-----9-----------9--|
-----5--------------------|--------------------------|
--------------------------|--------------------------|
--------------8-----------|--------8-----------------|


--3-----------------4-----|-----4-----6--3-----------|
-----------5--------------|--6-----6--------------5--|
--------5-----5--------5--|-----5--------------5-----|
-----5-----------5--3-----|-----------------5--------|
--3-----------------------|--------------3-----------|
--------------------------|--------------------------|


--------------------------|--------------------8-----|
-----------------5--------|--8--------8--------------|
--5-----------5-----5-----|--------5-----5--------8--|
-----5-----5-----------5--|-----5-----------5--------|
--------3-----------------|--6-----------------------|
--------------------------|--------------------4-----|


-----8-----10--7--------7--|-----------------8--------|
--8------------------8-----|--8-----------8--------8--|
--------8---------7--------|-----7-----7--------7-----|
-----6---------5-----------|--------5--------7--------|
---------------------------|--------------------------|
---------------------------|--------------------------|


--10--------10--------8-----|------5--------6--------6--|
---------8------8-----------|--10--------7--------8-----|
------7------------7-----8--|---------7--------7--------|
----------------------------|---------------5-----------|
----------------------------|------5--------------------|
--6-------------------8-----|---------------------------|


-----------------6--------|--6--------6--------4-----|
--8-----------8-----8-----|--------8-----8-----------|
-----7-----7-----------7--|-----8-----------8-----5--|
--------5-----------------|--------------------6-----|
--------------------------|--6-----------------------|
--------------------------|--------------------------|


--------------------------|-----------------------6--|
--6--6-----6--8--------8--|-----------------8--------|
--------7-----------8-----|--8-----------8-----8-----|
-----8-----------8--------|-----8-----8--------------|
--------------6-----------|--------6-----------------|
--------------------------|--------------------------|


--8--------8--------8-----|-----7--------8--------8--|
--------8-----8-----------|--9--------8--------8-----|
-----8-----------8-----7--|--------7--------8--------|
--------------------------|-----5--------------------|
--------------------8-----|--------------------------|
--8-----------------------|--------------8-----------|


-------------------------------------|--8--------8--------8-----|
--8-------------9--------------8-----|--------8-----8-----------|
-----8-------10---10---------7---7---|-----8-----------8-----7--|
----------10---------10----9-------9-|--------------------------|
--------8---------------10-----------|--------------------8-----|
-------------------------------------|--8-----------------------|


-----7--------8--------8--|--------8--------8--------|
--9--------8--------8-----|--8-----------9-----9-----|
--------7--------8--------|-----8-----7-----------7--|
-----5--------------------|--------------------------|
--------------------------|--------------------------|
--------------8-----------|--------8-----------------|


--8--------8--------8-----|-----8--------8--------||
--------8-----8-----------|--9-----9-----8--------||
-----8-----------8-----7--|-----------7--9--------||
--------------------------|-----------------------||
--------------------------|-----------------------||

↓ Add and view comments below ↓

What do you think about this song and these tabs?

Add your comments, questions, rant or a thumbs up below.

Almost there ...

Sign in to get your own page with links to favourite songs and more. You are just one click away...

Login with Facebook Login with Google