Log in

One click and you are in

Login with Facebook Login with Google

Why sign up and log in

Guitar Tabs Explorer
Misc Soundtrack bass tabs for A better tomorrow ii theme

A Better Tomorrow Ii Theme bass tab by Misc Soundtrack

Misc Soundtrack bass tabs for A better tomorrow ii theme

Bass tabs

Standard tuning

h = hammer on
\ = slide up

This bass tab for the groovy theme of the underrated Heroic Bloodshed crime epic "A
Better Tomorrow" (1987, John Woo)is not written in time to the music but it should be easy
enough to decipher if you listen to the track

Hope I've helped in anyway and good luck.

G|--------6-------------------------------3h5-----8\10--9--8--7--8-----------|
D|-----6--------------3h5--3-------------------3--------------------6--4--6--|
A|--4--------3--3--6----------1--1--2--3-------------------------------------|
E|---------------------------------------------------------------------------|


G|-----------4h6------------4h6--4-----------------------|
D|--------6-----------6--4----------4-----7--------6-----|
A|-----4-------------------------------7-----7--5-----4--|
E|--4----------------------------------------------------|


G|--------------------------------------------------------------5--------5--|
D|--------3--------3--------3--------3--------3--------3-----5--------5-----|
A|-----3--------3--------3--------3-----4--------4--------3--------3--------|
E|--1--------1--------1--------1-----------4--------4-----------------------|


G|-----------------------------------------3--1--------------3--1-----|
D|--------3--1--------------3--1--------3--------3--1-----3--------3--|
A|-----3--------3--1-----3--------3--1-----------------1--------------|
E|--1-----------------1-----------------------------------------------|

G|--------------------------5h7--5---------------------------------------|
D|--------4h6--4--------5----------5--------3h5--3-----------3-----1--3--|
A|--4--------------4--3-------------------3----------3-----3-----3-------|
E|-----4-------------------------------1----------------1----------------|


G|--------------------|
D|--3--2--1-----------|
A|-----------5--4--3--|
E|--------------------|


G|--------------------------------------------------------------5--------5--|
D|--------3--------3--------3--------3--------3--------3-----5--------5-----|
A|-----3--------3--------3--------3-----4--------4--------3--------3--------|
E|--1--------1--------1--------1-----------4--------4-----------------------|


G|-----------------------------------------3--1--------------3--1-----|
D|--------3--1--------------3--1--------3--------3--1-----3--------3--|
A|-----3--------3--1-----3--------3--1-----------------1--------------|
E|--1-----------------1-----------------------------------------------|


G|--------------------------5h7--5---------------------------------------|
D|--------4h6--4--------5----------5--------3h5--3-----------3-----1--3--|
A|--4--------------4--3-------------------3----------3-----3-----3-------|
E|-----4-------------------------------1----------------1----------------|


G|-----------------||
D|--3--2--1--------||
A|-----------3-----||
E|--------------3--||

Almost there ...

Sign in to get your own page with links to favourite songs and more. You are just one click away...

Login with Facebook Login with Google