Log in

One click and you are in

Login with Facebook Login with Google

Why sign up and log in

Guitar Tabs Explorer
Misc Soundtrack bass tabs for 500 days of summer - sugar town

500 Days Of Summer - Sugar Town bass tab by Misc Soundtrack

Misc Soundtrack bass tabs for 500 days of summer - sugar town

Bass tabs with lyrics

| 500 Days Of Summer- Sugar Town |
++++++++++++++++++++++++++++++++++


"So I just lay back and laugh at the sun..."

This is the version sung by Zooey Deschanel
in the 500 days of summer film!

Tuning: EADG


Intro
1.
G|-------------------------------------------------|
D|-------------------------------------------------|
A|-------0~--0-3~--3-2~--2-------0~--0-3~--3-2~--2-|
E|-3~--3-------------------3~--3-------------------|


Verse
"I got some troubles..."
2.
G|-------------------------------------------------------------------------|
D|-------------------------------------------------------------------------|
A|-------0~--0-3~--3-2~--2-------0~--0-3~--3-2~--2-------0~--0-3~--3-2~--2-|
E|-3~--3-------------------3~--3-------------------3~--3-------------------|


Chorus
"Im in shoo shoo shoo..."
3.
G|-----------------------------------|
D|-----------------------------------|
A|-0~--0-5~--5-0~--0-5~--5-0~--0-5-5-|
E|-----------------------------------|

Outro
4.
G|-------------------------|
D|-5~--5-------------------|
A|-------0~--0-3~--3-2~--2-|
E|-------------------------|


Verse
"I never had a dog that liked me some..."
5.
G|-------------------------------------------------------------------------|
D|-------------------------------------------------------------------------|
A|-------0~--0-3~--3-2~--2-------0~--0-3~--3-2~--2-------0~--0-3~--3-2~--2-|
E|-3~--3-------------------3~--3-------------------3~--3-------------------|


Chorus
"Im in shoo shoo shoo..."
6.
G|-----------------------------------|
D|-----------------------------------|
A|-0~--0-5~--5-0~--0-5~--5-0~--0-5-5-|
E|-----------------------------------|


Outro
7.
G|-------------------------|
D|-5~--5-------------------|
A|-------0~--0-3~--3-2~--2-|
E|-------------------------|


Bridge
8.
G|-------------------------------------------------------------------------|
D|-------------------------------------------------------------------------|
A|-------0~--0-3~--3-2~--2-------0~--0-3~--3-2~--2-------0~--0-3~--3-2~--2-|
E|-3~--3-------------------3~--3-------------------3~--3-------------------|


Verse
"Yesterday it rained in Tenessee..."
9.
G|-------------------------------------------------------------------------|
D|-------------------------------------------------------------------------|
A|-------0~--0-3~--3-2~--2-------0~--0-3~--3-2~--2-------0~--0-3~--3-2~--2-|
E|-3~--3-------------------3~--3-------------------3~--3-------------------|


Chorus
"I was in shoo shoo shoo..."
10.
G|-----------------------------------|
D|-----------------------------------|
A|-0~--0-5~--5-0~--0-5~--5-0~--0-5-5-|
E|-----------------------------------|


Outro
11.
G|-------------------------|
D|-5~--5-------------------|
A|-------0~--0-3~--3-2~--2-|
E|-------------------------|


Verse
"If I had a million dollars or ten..."
12.
G|-------------------------------------------------------------------------|
D|-------------------------------------------------------------------------|
A|-------0~--0-3~--3-2~--2-------0~--0-3~--3-2~--2-------0~--0-3~--3-2~--2-|
E|-3~--3-------------------3~--3-------------------3~--3-------------------|


Chorus
"My life in shoo shoo shoo..."
13.
G|-----------------------------------|
D|-----------------------------------|
A|-0~--0-5~--5-0~--0-5~--5-0~--0-5-5-|
E|-----------------------------------|


Outro
14.
G|-------------------------|
D|-5~--5-------------------|
A|-------0~--0-3~--3-2~--2-|
E|-------------------------|

"La la la..."
15.
G|-------------------------------------------------------------------------|
D|-------------------------------------------------------------------------|
A|-------0~--0-3~--3-2~--2-------0~--0-3~--3-2~--2-------0~--0-3~--3-2~--2-|
E|-3~--3-------------------3~--3-------------------3~--3-------------------|

16.
G|-------------------|
D|-------------------|
A|-------------------|
E|-3~----------------|

Please rate thanks!!


Lyrics:

I got some troubles but they won't last
I'm gonna lay right down here in the grass
And pretty soon all my troubles will pass
'cause I'm in shoo-shoo-shoo...

I never had a dog that liked me some
Never had a friend or wanted one
So I just lay back and laugh at the sun
'cause I'm in shoo-shoo-shoo...

Yesterday it rained in Tennessee
I heard it also rained in Tallahassee
But not a drop fell on little old me
'cause I was in shoo-shoo-shoo...

If I had a million dollars or ten
I'd give to ya, world, and then
You'd go away and let me spend
My life in shoo-shoo-shoo...


+++++++++++++++++++++++++++++++++
| Raileff                       |
| Underground__Dora@Hotmail.Com |

Almost there ...

Sign in to get your own page with links to favourite songs and more. You are just one click away...

Login with Facebook Login with Google