Log in

One click and you are in

Login with Facebook Login with Google

Why sign up and log in

Guitar Tabs Explorer
Misc Soundtrack guitar tabs for 31 - the show must go on

31 - The Show Must Go On tab by Misc Soundtrack

Misc Soundtrack guitar tabs for 31 - the show must go on

Guitar tabs

THE SHOW MUST GO ON

Open A chord diagramG MajorG tuning: D-G-D-G-B-D
(0:00)
D|-0--0--0---0--0--0-0-0-|-0-0-0-0-0--0-0-|-0--0--0---0--0--0-0-0-|-0--0---0--0----|
B|-10/12-12--10\7--7\5-5-|-3-3-5-5-0--0-0-|-10/12-12--10\7--7\5-0-|-3--3---5--5----|
G|-0--0--0---0--0--0-0-0-|-0-0-0-0-0--0-0-|-0--0--0---0--0--0-0-0-|-3--3---5--5-0--|
D|-10/12-12--10\7--7\5-5-|-4-4-5-5-0--0-0-|-10/12-12--10\7--7\5-0-|-0--0-0-0--0-0--|
G|-0--0--0---0--0--0-0-0-|-0-0-0-0-0--0-0-|-0--0--0---0--0--0-0-0-|-0--0-0-0--0-0--|
D|-----------------------|----------------|---------------------0-|-3--3-0-5--5-0--|

(0:09)
D|-0--0--0---0--0--0-0-0-|-0-0-0-0-0--0-0-|-0--0--0---0--0--0-0-0-|-0--0---0--0----|
B|-10/12-12--10\7--7\5-5-|-3-3-5-5-0--0-0-|-10/12-12--10\7--7\5-0-|-3--3---5--5----|
G|-0--0--0---0--0--0-0-0-|-0-0-0-0-0--0-0-|-0--0--0---0--0--0-0-0-|-3--3---5--5-0--|
D|-10/12-12--10\7--7\5-5-|-4-4-5-5-0--0-0-|-10/12-12--10\7--7\5-0-|-0--0-0-0--0-0--|
G|-0--0--0---0--0--0-0-0-|-0-0-0-0-0--0-0-|-0--0--0---0--0--0-0-0-|-0--0-0-0--0-0--|
D|-----------------------|----------------|---------------------0-|-3--3-0-5--5-0--|

(0:18)
D|-5--5-5---5-5-0-|-5--5-5-5-5-5-0-|-0--0--0---0--0--0-0-0-|-0-0-0-0-0--0-0-|
B|-5--5-7---7-8-0-|-5--5-7-7-7-5-0-|-10/12-12--10\7--7\5-5-|-3-3-5-5-0--0-0-|
G|-5--5-5-5-5-5-0-|-5--5-5-5-5-5-0-|-0--0--0---0--0--0-0-0-|-0-0-0-0-0--0-0-|
D|-5--5-5-5-5-5-0-|-5--5-5-5-5-5-0-|-10/12-12--10\7--7\5-5-|-4-4-5-5-0--0-0-|
G|-5------5-----0-|-5--5---------0-|-0--0--0---0--0--0-0-0-|-0-0-0-0-0--0-0-|
D|-5--------------|----------------|-----------------------|----------------|

(0:27)
D|-5----5--------0-|-5-----------0--|-0--0--0---0--0--0-0-0-|-0-0-0-0-0--0-0-|
B|-5--5-7---7-8--0-|-5-5-7-7-7-5-0--|-10/12-12--10\7--7\5-5-|-3-3-5-5-0--0-0-|
G|-5--5-5-5-5-5--0-|-5-5-5-5-5-5-0--|-0--0--0---0--0--0-0-0-|-0-0-0-0-0--0-0-|
D|-5--5-5-5-5-5--0-|-5-5-5-5-5-5-0--|-10/12-12--10\7--7\5-5-|-4-4-5-5-0--0-0-|
G|-5-------------0-|-5-----------0--|-0--0--0---0--0--0-0-0-|-0-0-0-0-0--0-0-|
D|-5---------------|-5--------------|-----------------------|----------------|

(0:35)
D|-0--0--0----0--0--0-0-0-0-|-0-0-0-0-0-0-0-0-|-0-0-0-0-0-0-0-0-|-0-0-0-0-0-0-0-|
B|-10/12-12---10\7--7\5-5-0-|-3\2-0-2-2-3-3-0-|-3\2-0-2-2-3-3-0-|-3\2-0-0-0-3-3-|
G|-0--0--0----0--0--0-0-0-0-|-3\2-0-2-2-3-3-0-|-3\2-0-2-2-3-3-0-|-3\2-0-2-2-3-3-|
D|-10/12-12---10\7--7\5-5-0-|-0-0-0-0-0-0-0-0-|-0-0-0-0-0-0-0-0-|-0-0-0-2-2-3-3-|
G|-0--0--0----0--0--0-0-0-0-|-0-0-0-0-0-0-0-0-|-0-0-0-0-0-0-0-0-|-0-0-0-0-0-0-0-|
D|--------------------------|-3\2-0-2-2-3-3-0-|-3\2-0-2-2-3-3---|-3\2-0-2-2-3-3-|

(0:44)
D|-0--0------------|-----------------|-----------------|---0-0-0-0-0-0-0-0-|--------------|
B|-0--0-3/5-0--x-x-|-0--0-3/5-0--x-x-|-0--0-3/5-0--x-x-|-0-3\2-0-2-2-3-3-0-|-0-3/5-0--x-x-|
G|-0--0-3/5-0--x-x-|-0--0-3/5-0--x-x-|-0--0-3/5-0--x-x-|-0-3\2-0-2-2-3-3-0-|-0-3/5-0--x-x-|
D|-0--0-3/5-0--x-x-|-0--0-3/5-0--x-x-|-0--0-3/5-0--x-x-|-0-0-0-0-0-0-0-0-0-|-0-3/5-0--x-x-|
G|-0--0-3/5-0--x-x-|-0--0-3/5-0--x-x-|-0--0-3/5-0--x-x-|-0-0-0-0-0-0-0-0-0-|-0-3/5-0--x-x-|
D|-----------------|-----------------|-----------------|---3\2-0-2-2-3-3---|--------------|

(0:55)
D|-----------------|-----------------|---0-0---0-0-0---|-0--0--0---0--0--0-0-0-|-0-0-0-0-0--0-0-|
B|-0--0-3/5-0--x-x-|-0--0-3/5-0--x-x-|-0-3\2-0-2-2-3-0-|-10/12-12--10\7--7\5-5-|-3-3-5-5-0--0-0-|
G|-0--0-3/5-0--x-x-|-0--0-3/5-0--x-x-|-0-3\2-0-2-2-3-0-|-0--0--0---0--0--0-0-0-|-0-0-0-0-0--0-0-|
D|-0--0-3/5-0--x-x-|-0--0-3/5-0--x-x-|-0-0-0-0-0-0-0-0-|-10/12-12--10\7--7\5-5-|-4-4-5-5-0--0-0-|
G|-0--0-3/5-0--x-x-|-0--0-3/5-0--x-x-|-0-0-0-0-0-0-0-0-|-0--0--0---0--0--0-0-0-|-0-0-0-0-0--0-0-|
D|-----------------|-----------------|---3-2-0-2-2-3---|-----------------------|----------------|

(1:06)
D|-0--0--0---0--0--0-0-0-0-|--0-0---0--0----|-0--0--0---0--0--0-0-0-|-0-0-0-0-0--0-0-|
B|-10/12-12--10\7--7\5-5-0-|--3-3---5--5----|-10/12-12--10\7--7\5-5-|-3-3-5-5-0--0-0-|
G|-0--0--0---0--0--0-0-0-0-|--3-3---5--5-0--|-0--0--0---0--0--0-0-0-|-0-0-0-0-0--0-0-|
D|-10/12-12--10\7--7\5-5-0-|--0-0-0-0--0-0--|-10/12-12--10\7--7\5-5-|-4-4-5-5-0--0-0-|
G|-0--0--0---0--0--0-0-0-0-|--0-0-0-0--0-0--|-0--0--0---0--0--0-0-0-|-0-0-0-0-0--0-0-|
D|-------------------------|--3-3-0-5--5-0--|-----------------------|----------------|

(1:14)
D|-0--0--0---0--0--0-0-0-0-|--0-0---0--0----|-5----5---5-5-0-|-5----5---5-5-0-|
B|-10/12-12--10\7--7\5-5-0-|--3-3---5--5----|-5----7---7-8-0-|-5----7---7-7-0-|
G|-0--0--0---0--0--0-0-0-0-|--3-3---5--5-0--|-5----5-5-5-5-0-|-5----5-5-5-5-0-|
D|-10/12-12--10\7--7\5-5-0-|--0-0-0-0--0-0--|-5--5-5-5-5-5-0-|-5--5-5-5-5-5-0-|
G|-0--0--0---0--0--0-0-0-0-|--0-0-0-0--0-0--|-5--5---------0-|-5--5-----------|
D|-------------------------|--3-3-0-5--5-0--|-5--------------|-5--------------|

(1:22)
D|-0--0--0---0--0--0-0-0-|-0-0-0-0-0--0-0-|-5--5-5---5-5-0-|-5--5-5-5-5-5-0-|
B|-10/12-12--10\7--7\5-5-|-3-3-5-5-0--0-0-|-5--5-7---7-8-0-|-5--5-7-7-7-5-0-|
G|-0--0--0---0--0--0-0-0-|-0-0-0-0-0--0-0-|-5--5-5---5-5-0-|-5--5-5-5-5-5-0-|
D|-10/12-12--10\7--7\5-5-|-4-4-5-5-0--0-0-|-5--5-5-5-5-5-0-|-5--5-5-5-5-5-0-|
G|-0--0--0---0--0--0-0-0-|-0-0-0-0-0--0-0-|-5------5-----0-|-5--5---------0-|
D|-----------------------|----------------|-5--------------|-5--------------|

(1:31)
D|-0--0--0---0--0--0-0-0-|-0-0-0-0-0--0-0-|-0--0--0----0--0--0-0-0-0-|
B|-10/12-12--10\7--7\5-5-|-3-3-5-5-0--0-0-|-10/12-12---10\7--7\5-5-0-|
G|-0--0--0---0--0--0-0-0-|-0-0-0-0-0--0-0-|-0--0--0----0--0--0-0-0-0-|
D|-10/12-12--10\7--7\5-5-|-4-4-5-5-0--0-0-|-10/12-12---10\7--7\5-5-0-|
G|-0--0--0---0--0--0-0-0-|-0-0-0-0-0--0-0-|-0--0--0----0--0--0-0-0-0-|
D|-----------------------|----------------|--------------------------|

(1:39)
D|-0-0-0--0-0-0-0-0-|-0-0-0-0-0-0-0--0-|-0-0-0-0-0-0-0-|
B|-3\2-0--2-2-3-3-0-|-3\2-0-2-2-3-3--0-|-3\2-0-2-2-3-3-|
G|-3\2-0--2-2-3-3-0-|-3\2-0-2-2-3-3--0-|-3\2-0-2-2-3-3-|
D|-0-0-0--0-0-0-0-0-|-0-0-0-0-0-0-0--0-|-0-0-0-0-0-0-0-|
G|-0-0-0--0-0-0-0-0-|-0-0-0-0-0-0-0--0-|-0-0-0-0-0-0-0-|
D|-3\2-0--2-2-3-3-0-|-3\2-0-2-2-3-3----|-3\2-0-2-2-3-3-|

(1:45)
D|-0--0------------|-----------------|-----------------|-----------------|
B|-0--0-3/5-0--x-x-|-0--0-3/5-0--x-x-|-0--0-3/5-0--x-x-|-0-3\2-0-2-2-3-3-|
G|-0--0-3/5-0--x-x-|-0--0-3/5-0--x-x-|-0--0-3/5-0--x-x-|-0-3\2-0-2-2-3-3-|
D|-0--0-3/5-0--x-x-|-0--0-3/5-0--x-x-|-0--0-3/5-0--x-x-|-0-0-0-0-0-0-0-0-|
G|-0--0-3/5-0--x-x-|-0--0-3/5-0--x-x-|-0--0-3/5-0--x-x-|-0-0-0-0-2-2-0-0-|
D|-0---------------|-----------------|-----------------|-0-3\2-0-2-2-3-3-|

(1:54)
D|-0----------------|-----------------|-----------------|----5*--7*--12*---|
B|-0--0-3/5-0--x-x--|-0--0-3/5-0--x-x-|-0--0-3/5-0--x-x-|-0--5*--7*--12*---|
G|-0--0-3/5-0--x-x--|-0--0-3/5-0--x-x-|-0--0-3/5-0--x-x-|-0--5*--7*--12*---|
D|-0--0-3/5-0--x-x--|-0--0-3/5-0--x-x-|-0--0-3/5-0--x-x-|-0--5*--7*--12*---|
G|-0--0-3/5-0--x-x--|-0--0-3/5-0--x-x-|-0--0-3/5-0--x-x-|-0--5*--7*--12*---|
D|-0----------------|-----------------|-----------------|------------------|

(2:04)
D|-0--0--0---0--0--0-0-0-|-0-0-0-0-0--0-0-|-0--0--0---0--0--0-0-0-|-0-0---0--0----|
B|-10/12-12--10\7--7\5-5-|-3-3-5-5-0--0-0-|-10/12-12--10\7--7\5-0-|-3-3---5--5----|
G|-0--0--0---0--0--0-0-0-|-0-0-0-0-0--0-0-|-0--0--0---0--0--0-0-0-|-3-3---5--5-0--|
D|-10/12-12--10\7--7\5-5-|-4-4-5-5-0--0-0-|-10/12-12--10\7--7\5-0-|-0-0-0-0--0-0--|
G|-0--0--0---0--0--0-0-0-|-0-0-0-0-0--0-0-|-0--0--0---0--0--0-0-0-|-0-0-0-0--0-0--|
D|-----------------------|----------------|---------------------0-|-3-3-0-5--5-0--|

(2:13)
D|-0--0--0---0--0--0-0-0-|-0-0-0-0-0--0-0-|-0--0--0---0--0--0-0-0-|-0-0---0--0----|
B|-10/12-12--10\7--7\5-5-|-3-3-5-5-0--0-0-|-10/12-12--10\7--7\5-0-|-3-3---5--5----|
G|-0--0--0---0--0--0-0-0-|-0-0-0-0-0--0-0-|-0--0--0---0--0--0-0-0-|-3-3---5--5-0--|
D|-10/12-12--10\7--7\5-5-|-4-4-5-5-0--0-0-|-10/12-12--10\7--7\5-0-|-0-0-0-0--0-0--|
G|-0--0--0---0--0--0-0-0-|-0-0-0-0-0--0-0-|-0--0--0---0--0--0-0-0-|-0-0-0-0--0-0--|
D|-----------------------|----------------|---------------------0-|-3-3-0-5--5-0--|

(2:22)
D|-5-5-5---5-5-0--5-|-5-5-5-5-5-0-|-0--0--0---0--0--0-0-0-|-0-0-0-0-0--0-0-|
B|-5-5-7---7-8-0--5-|-5-7-7-7-5-0-|-10/12-12--10\7--7\5-5-|-3-3-5-5-0--0-0-|
G|-5-5-5---5-5-0--5-|-5-5-5-5-5-0-|-0--0--0---0--0--0-0-0-|-0-0-0-0-0--0-0-|
D|-5-5-5-5-5-5-0--5-|-5-5-5-5-5-0-|-10/12-12--10\7--7\5-5-|-4-4-5-5-0--0-0-|
G|-5-----5-----0--5-|-5---------0-|-0--0--0---0--0--0-0-0-|-0-0-0-0-0--0-0-|
D|-5----------------|-5-----------|-----------------------|----------------|

(2:31)
D|-5-5-5---5-5-0-|-5--5-5-5-5-5-0-|-0--0--0---0--0--0-0-0-|-0-0-0-0-0--0-0-|
B|-5-5-7---7-8-0-|-5--5-7-7-7-5-0-|-10/12-12--10\7--7\5-5-|-3-3-5-5-0--0-0-|
G|-5-5-5---5-5-0-|-5--5-5-5-5-5-0-|-0--0--0---0--0--0-0-0-|-0-0-0-0-0--0-0-|
D|-5-5-5-5-5-5-0-|-5--5-5-5-5-5-0-|-10/12-12--10\7--7\5-5-|-4-4-5-5-0--0-0-|
G|-5-----5-----0-|-5--5---------0-|-0--0--0---0--0--0-0-0-|-0-0-0-0-0--0-0-|
D|-5-------------|-5--------------|-----------------------|----------------|

(2:39)
D|-0--0--0----0--0--0-0-0-0-|-0-0-0-0-0-0-0-0-|-0-0-0-0-0-0-0-0-|-0-0-0-0-0-0-0-|
B|-10/12-12---10\7--7\5-5-0-|-3\2-0-2-2-3-3-0-|-3\2-0-2-2-3-3-0-|-3\2-0-0-0-3-3-|
G|-0--0--0----0--0--0-0-0-0-|-3\2-0-2-2-3-3-0-|-3\2-0-2-2-3-3-0-|-3\2-0-2-2-3-3-|
D|-10/12-12---10\7--7\5-5-0-|-0-0-0-0-0-0-0-0-|-0-0-0-0-0-0-0-0-|-0-0-0-0-0-0-0-|
G|-0--0--0----0--0--0-0-0-0-|-0-0-0-0-0-0-0-0-|-0-0-0-0-0-0-0-0-|-0-0-0-0-0-0-0-|
D|--------------------------|-3\2-0-2-2-3-3-0-|-3\2-0-2-2-3-3---|-3\2-0-2-2-3-3-|

(2:49)
D|-0-0------------|-0--0-----0------|-0--0-----0------|-0-0-0-0-0-0-0-0-|
B|-0-0-3/5-0--x-x-|-0--0-3/5-0--x-x-|-0--0-3/5-0--x-x-|-0-3\2-0-2-2-3-3-|
G|-0-0-3/5-0--x-x-|-0--0-3/5-0--x-x-|-0--0-3/5-0--x-x-|-0-3\2-0-2-2-3-3-|
D|-0-0-3/5-0--x-x-|-0--0-3/5-0--x-x-|-0--0-3/5-0--x-x-|-0-0-0-0-0-0-0-0-|
G|-0-0-3/5-0--x-x-|-0--0-3/5-0--x-x-|-0--0-3/5-0--x-x-|-0-0-0-0-0-0-0-0-|
D|-0--------------|-----------------|-----------------|---3\2---2-2-3-3-|

(2:57)
D|-0-------0-------|-0--0-----0------|-0--0-----0------|-0-0-0-0-0-0-0-0--|
B|-0-0-3/5-0--x-x--|-0--0-3/5-0--x-x-|-0--0-3/5-0--x-x-|-0-3\2-0-2-2-3-0--|
G|-0-0-3/5-0--x-x--|-0--0-3/5-0--x-x-|-0--0-3/5-0--x-x-|-0-3\2-0-2-2-3-0--|
D|-0-0-3/5-0--x-x--|-0--0-3/5-0--x-x-|-0--0-3/5-0--x-x-|-0-0-0-0-0-0-0-0--|
G|-0-0-3/5-0--x-x--|-0--0-3/5-0--x-x-|-0--0-3/5-0--x-x-|-0-0-0-0-0-0-0-0--|
D|-0---------------|-----------------|-----------------|---3\2-0-2-2-3-0--|

(3:06)
D|-0--0--0---0--0--0-0-0-|-0-0-0-0-0--0-0-|-0--0--0---0--0--0-0-0-|-0--0---0--0----|
B|-10/12-12--10\7--7\5-5-|-3-3-5-5-0--0-0-|-10/12-12--10\7--7\5-0-|-3--3---5--5----|
G|-0--0--0---0--0--0-0-0-|-0-0-0-0-0--0-0-|-0--0--0---0--0--0-0-0-|-3--3---5--5-0--|
D|-10/12-12--10\7--7\5-5-|-4-4-5-5-0--0-0-|-10/12-12--10\7--7\5-0-|-0--0-0-0--0-0--|
G|-0--0--0---0--0--0-0-0-|-0-0-0-0-0--0-0-|-0--0--0---0--0--0-0-0-|-0--0-0-0--0-0--|
D|-----------------------|----------------|---------------------0-|-3--3-0-5--5-0--|

(3:14)
D|-0--0--0---0--0--0-0-0-|-0-0-0-0-0--0-0-|-0--0--0---0--0--0-0-0-|-0--0---0--0----|
B|-10/12-12--10\7--7\5-5-|-3-3-5-5-0--0-0-|-10/12-12--10\7--7\5-0-|-3--3---5--5----|
G|-0--0--0---0--0--0-0-0-|-0-0-0-0-0--0-0-|-0--0--0---0--0--0-0-0-|-3--3---5--5-0--|
D|-10/12-12--10\7--7\5-5-|-4-4-5-5-0--0-0-|-10/12-12--10\7--7\5-0-|-0--0-0-0--0-0--|
G|-0--0--0---0--0--0-0-0-|-0-0-0-0-0--0-0-|-0--0--0---0--0--0-0-0-|-0--0-0-0--0-0--|
D|-----------------------|----------------|---------------------0-|-3--3-0-5--5-0--|

(3:23)
D|-5--5-5---5-5-0-|-5--5-5-5-5-5-0-|-0--0--0---0--0--0-0-0-|-0-0-0-0-0--0-0-|
B|-5--5-7---7-8-0-|-5--5-7-7-7-5-0-|-10/12-12--10\7--7\5-5-|-3-3-5-5-0--0-0-|
G|-5--5-5---5-5-0-|-5--5-5-5-5-5-0-|-0--0--0---0--0--0-0-0-|-0-0-0-0-0--0-0-|
D|-5--5-5-5-5-5-0-|-5--5-5-5-5-5-0-|-10/12-12--10\7--7\5-5-|-4-4-5-5-0--0-0-|
G|-5------5-----0-|-5--5---------0-|-0--0--0---0--0--0-0-0-|-0-0-0-0-0--0-0-|
D|-5--------------|-5--------------|-----------------------|----------------|

(3:32)
D|-5--5-5---5-5-0-|-5--5-5-5-5-5-0-|-0--0--0---0--0--0-0-0-|-0-0-0-0-0--0-0-|
B|-5--5-7---7-8-0-|-5--5-7-7-7-5-0-|-10/12-12--10\7--7\5-5-|-3-3-5-5-0--0-0-|
G|-5--5-5---5-5-0-|-5--5-5-5-5-5-0-|-0--0--0---0--0--0-0-0-|-0-0-0-0-0--0-0-|
D|-5--5-5-5-5-5-0-|-5--5-5-5-5-5-0-|-10/12-12--10\7--7\5-5-|-4-4-5-5-0--0-0-|
G|-5------5-----0-|-5--5---------0-|-0--0--0---0--0--0-0-0-|-0-0-0-0-0--0-0-|
D|-5--------------|-5--------------|-----------------------|----------------|

(3:40)
D|-0--0--0----0--0--0-0-0-0-|-0-0-0-0-0-0-0-0-|-0-0-0-0-0-0-0--0-|-0-0-0-0-0-0-0-|
B|-10/12-12---10\7--7\5-5-0-|-3\2-0-2-2-3-3-0-|-3\2-0-2-2-3-3--0-|-3\2-0-2-2-3-3-|
G|-0--0--0----0--0--0-0-0-0-|-3\2-0-2-2-3-3-0-|-3\2-0-2-2-3-3--0-|-3\2-0-2-2-3-3-|
D|-10/12-12---10\7--7\5-5-0-|-0-0-0-0-0-0-0-0-|-0-0-0-0-0-0-0--0-|-0-0-0-0-0-0-0-|
G|-0--0--0----0--0--0-0-0-0-|-0-0-0-0-0-0-0-0-|-0-0-0-0-0-0-0--0-|-0-0-0-0-0-0-0-|
D|--------------------------|-3\2-0-2-2-3-3-0-|-3\2-0-2-2-3-3----|-3\2-0-2-2-3-3-|

(3:50)
D|-0--0-----0------|-0--0-----0------|-0--0-----0------|-0-0-0-0-0-0-0-0-0-|
B|-0--0-3/5-0--x-x-|-0--0-3/5-0--x-x-|-0--0-3/5-0--x-x-|-0-3\2-0-2-2-3-3-0-|
G|-0--0-3/5-0--x-x-|-0--0-3/5-0--x-x-|-0--0-3/5-0--x-x-|-0-3\2-0-2-2-3-3-0-|
D|-0--0-3/5-0--x-x-|-0--0-3/5-0--x-x-|-0--0-3/5-0--x-x-|-0-0-0-0-0-0-0-0-0-|
G|-0--0-3/5-0--x-x-|-0--0-3/5-0--x-x-|-0--0-3/5-0--x-x-|-0-0-0-0-0-0-0-0-0-|
D|-0---------------|-----------------|-----------------|---3\2---2-2-3-3---|

(4:00)
D|-0-----0-------|-0--0-----0------|-0--0-----0------|-0--12*--7*--5*--|
B|-0-3/5-0--x-x--|-0--0-3/5-0--x-x-|-0--0-3/5-0--x-x-|-0--12*--7*--5*--|
G|-0-3/5-0--x-x--|-0--0-3/5-0--x-x-|-0--0-3/5-0--x-x-|-0--12*--7*--5*--|
D|-0-3/5-0--x-x--|-0--0-3/5-0--x-x-|-0--0-3/5-0--x-x-|-0--12*--7*--5*--|
G|-0-3/5-0--x-x--|-0--0-3/5-0--x-x-|-0--0-3/5-0--x-x-|-0--12*--7*--5*--|
D|---------------|-----------------|-----------------|-----------------|


************************************

| x  Dead note
| /  Slide up
| \  Slide down
| *  Natural harmonic

************************************

Almost there ...

Sign in to get your own page with links to favourite songs and more. You are just one click away...

Login with Facebook Login with Google