Log in

One click and you are in

Login with Facebook Login with Google

Why sign up and log in

Guitar Tabs Explorer
Misc Soundtrack guitar tabs for 28 weeks later theme

Guitar tabs

Tuning: EADGBE

--------------------------------------:
--------------------------------------:
--------------------------------------:
-6-6-6-6-7-7-7-7-9-9-9-9-10-10-10-10--:
-0-0-0-0-0-0-0-0-0-0-0-0-0--0--0--0---:
--------------------------------------:

--------------------------------------:
--------------------------------------:
--------------------------------------:
-6-6-6-6-7-7-7-7-9-9-9-9-10-10-10-10--:
--------------------------------------:
-8-8-8-8-8-8-8-8-8-8-8-8-8--8--8--8---:

the song just repeats itself over and over.

Tab submitted by: Wrath
to further contact me, please visit
www.myspace.com/sarcophagus666

Almost there ...

Sign in to get your own page with links to favourite songs and more. You are just one click away...

Login with Facebook Login with Google