Log in

One click and you are in

Login with Facebook Login with Google

Why sign up and log in

Guitar Tabs Explorer
Misc Soundtrack guitar tabs for 28 weeks later - london deserted

28 Weeks Later - London Deserted tab by Misc Soundtrack

Misc Soundtrack guitar tabs for 28 weeks later - london deserted

Guitar tabs

Listen to the song to get the right timing XD.

 There's orchestra and sound in beginning but then it gets to piano at around 00:25.      0:25:
    e:---------------------------------------------------------|
    B:------------------------------------------  Play slowly--| 1x
    G:---------------------------------------------------------|
    D:---------------------------------------------------------|
    A:---------------------------------------------------------|
    E:-10----------0-------------9-----------------------------|
                       0:40:
    e:--------------10---------------------10-------------|
    B:-----------10----10----------------10--10-----------|
    G:--------10----------10----------10--------10--------|
    D:-----12----------------12----12--------------12-----|
    A:-12-----------------------12------------------------|
    E:----------------------------------------------------|

    e:-------------10-----------------10----------------------|
    B:----------11---11------------11---11--------------------|
    G:-------10--------10-------10---------10-----------------|
    D:----12-------------12--12---------------12--------------|
    A:-13------------------13---------------------------------|
    E:--------------------------------------------------------|

    e:-----------8----------------8------------------9----------|
    B:---------8---8------------8---8-------------10------------|
    G:-------9------9---------9-------9----------9--------------|
    D:----10----------10---10-----------10----11----------------|
    A:-10---------------10-----------------12-------------------|
    E:----------------------------------------------------------|

    e:---------------------9----------------------|
    B:-10--------------10----10-------------------|
    G:----9----------9----------9-----------------|
    D:------11----11--------------11--------------|
    A:---------12---------------------------------|
    E:--------------------------------------------|
           REPEAT THOSE 4 BARS 3x SLOW PACE
              Play this over riffs above.
                    1:37:
   e:--3-3-3-3-3-3-3-3-----3-3-3-3-3-3-3-3------------------|
   B:--3-3-3-3-3-3-3-3---3-4-4-4-4-4-4-4-4---4--------------|
   G:--3-3-3-3-3-3-3-3--3--3-3-3-3-3-3-3-3--3---------------|
   D:------------------5-------------------5----------------|
   A:-------------------------------------------------------|
   E:-------------------------------------------------------|

   e:--1-1-1-1-1-1-1-1---1-2-2-2-2-2-2-2-2-2-----------|
   B:--1-1-1-1-1-1-1-1--1----3-3-3-3-3-3-3-3-----------|
   G:--2-2-2-2-2-2-2-2-2-----2-2-2-2-2-2-2-2-----------|
   D:--------------------------------------------------|
   A:--------------------------------------------------|
   E:--------------------------------------------------|
                       1:57:
   e:-14---14--14--14------14---14---14--14--------------|
   B:----14--14--14--14------15---15---15--15------------|
   G:----------------------------------------------------|
   D:----------------------------------------------------|
   A:----------------------------------------------------|
   E:-------------------10-------------------------------|

   e:-12----12--12--12--12-----13--13--13--13---13------|
   B:---12----12--12--12--12-----14--14--14--14-----14--|
   G:---------------------------------------------------|
   D:---------------------------------------------------|
   A:---------------------------------------------------|
   E:-----0------------------9--------------------------|
                        THE END.
         Feel free to correct/comment sk8boyfallen@yahoo.com

Almost there ...

Sign in to get your own page with links to favourite songs and more. You are just one click away...

Login with Facebook Login with Google