Log in

One click and you are in

Login with Facebook Login with Google

Why sign up and log in

Guitar Tabs Explorer
Misc Soundtrack guitar tabs for 21 jump street movie theme intro

21 Jump Street Movie Theme Intro tab by Misc Soundtrack

Misc Soundtrack guitar tabs for 21 jump street movie theme intro

Guitar tabs

-------------------------------------------------------------------------------
                             Main Theme - 21 Jump Street
-------------------------------------------------------------------------------
Tabbed by: E1M1
E-mail:
Tuning:
e|-------------------------------------------------------------------|
B|-----------------8-----------9----8----8-------9----6----6----6----|
G|--5----7----8---------5--------------------------------------------|
D|-------------------------------------------------------------------|
A|-------------------------------------------------------------------|
E|-------------------------------------------------------------------|

e|------------------------------8--------------------|
B|--8--------------8-------9---------11----8----6----|
G|-------8----8--------------------------------------|
D|---------------------------------------------------|
A|---------------------------------------------------|
E|---------------------------------------------------|


************************************

| /   slide up
| \   slide down
| h   hammer-on
| p   pull-off
| ~   vibrato
| +   harmonic
| x   Mute note
| b   Bend
| pb  Pre-bend
| br  Bend release
| pbr Pre-bend release
| brb Bend release bend

Almost there ...

Sign in to get your own page with links to favourite songs and more. You are just one click away...

Login with Facebook Login with Google