Log in

One click and you are in

Login with Facebook Login with Google

Why sign up and log in

Guitar Tabs Explorer
Misc Praise Songs chords for Be thou my vision ukulele

Be Thou My Vision Ukulele chords by Misc Praise Songs

Misc Praise Songs chords for Be thou my vision ukulele

Guitar chords

Tuning: G C E A (G C E A)

Difficulty: Intermediate


Verse:

 F        Gm     Dm       F   C5         Gm7     C5
A|----------------------------------------------0---|--------------0---3---5---3---0----------|
E|--1---1---3---1----3-----------1----1----3----1---|--3--3--3--3----------6-----------3------|
C|--0----------------2---0---2---2--------------0---|--0-------------------5-----------0------|
G|--2----------------0-----------2--------------2---|--0-------------------------------0------|
  Em7      Gm7      C  F        Dm     Em7     F  Gm    F
A|--5---5-7-8-7---5---3---0----3------------------|------0---3---5---3---0---0--0--------------|
E|--3-------------6------------0---1---0----------|--1-----------3-----------1-----3--1--1--1--|
C|--4-------------5------------0---0-------2---0--|--2-----------4-----------0-----2--------0--|
G|--0------------ 0------------0---2--------------|--2-----------------------2-----0--------2--|


Verse 2:

 F        Gm     Dm       F   C5         Gm7     C5
A|----------------------------------------------0---|--------------0---3---5---3---0----------|
E|--1---1---3---1----3-----------1----1----3----1---|--3--3--3--3----------6-----------3------|
C|--0----------------2---0---2---2--------------0---|--0-------------------5-----------0------|
G|--2----------------0-----------2--------------2---|--0-------------------------------0------|


  Em7      Gm7      C  F        Dm     Em7     F  Gm    F
A|--5---5-7-8-7---5---3---0----3------------------|------0---3---5---3---0---0--0--------------|
E|--3-------------6------------0---1---0----------|--1-----------3-----------1-----3--1--1--1--|
C|--4-------------5------------0---0-------2---0--|--2-----------4-----------0-----2--------0--|
G|--0------------ 0------------0---2--------------|--2-----------------------2-----0--------2--|


Verse 3:

 F        Gm     Dm       F   C5         Gm7     C5
A|----------------------------------------------0---|--------------0---3---5---3---0----------|
E|--1---1---3---1----3-----------1----1----3----1---|--3--3--3--3----------6-----------3------|
C|--0----------------2---0---2---2--------------0---|--0-------------------5-----------0------|
G|--2----------------0-----------2--------------2---|--0-------------------------------0------|


  Em7      Gm7      C  F        Dm     Em7     F  Gm    F
A|--5---5-7-8-7---5---3---0----3------------------|------0---3---5---3---0---0--0--------------|
E|--3-------------6------------0---1---0----------|--1-----------3-----------1-----3--1--1--1--|
C|--4-------------5------------0---0-------2---0--|--2-----------4-----------0-----2--------0--|
G|--0------------ 0------------0---2--------------|--2-----------------------2-----0--------2--|

Almost there ...

Sign in to get your own page with links to favourite songs and more. You are just one click away...

Login with Facebook Login with Google