Log in

One click and you are in

Login with Facebook Login with Google

Why sign up and log in

Guitar Tabs Explorer
Misc Original Songs chords for One step behind

One Step Behind chords by Misc Original Songs

Misc Original Songs chords for One step behind

Guitar chords with lyrics

ONE STEP BEHIND by Oragic
---------------
Lyrics by Tom Hubbard
Music by Jason Belaire and Tom Hubbard
Tabbed by Jason Belaire

Hello!  This is a song we put together a few months ago for nothing but the
pure hell of it.  Just learn the chunks of it below and play it in the order
listed under the heading "PLAY ORDER."

MUSIC CHUNKS:
-------------
   Guitar 1 (distorted electric, standard tuning)
   Guitar 2 (acoustic, standard tuning)

   4/4 Time, Tempo = 80 bpm

   Key:
   P.M.   Palm Mute
   ////   Slide

1A

RIFF (Guitar 1 - Intro)
 A chord diagramE MajorE
|--------0---0-----------0---0---|--------------------------------|
|--------0---0-----------0---0---|--------------------------------|
|--------1---1-----------1---1---|--------------------------------|
|--------2---2-----------2---2---|3///5---5---2-------2---2---0---|
|--------------------------------|3///5---5---2-------2---2---0---|
|0---0-----------0---0-----------|1///3---3---0-------0---0---0---|
 ^P.M. bass notes

1B

RIFF (Guitar 2 - Intro)
 A chord diagramE MajorE                                A chord diagramG+G           A chord diagramE MajorE
|--------0---0-----------0---0---|3---3---------------0---0---0---|
|--------0---0-----------0---0---|0---0-------0-------0---0---0---|
|--------1---1-----------1---1---|0---0-------1-------1---1---1---|
|--------2---2-----------2---2---|0---0---0---2-------2---2---2---|
|--------------------------------|2---2---0---2-------------------|
|0---0-----------0---0-----------|3---3---0---0-------------------|

1C

RIFF (Guitar 1 & 2 - Intro Ending)
 A chord diagramE MajorE                                A chord diagramG+G           A chord diagramA augmentedA
|--------0---0-----------0---0---|3---3-------0-------0---0---0---|
|--------0---0-----------0---0---|0---0-------2-------2---2---2---|
|--------1---1-----------1---1---|0---0-------2-------2---2---2---|
|--------2---2-----------2---2---|0---0-------2-------2---2---2---|
|--------------------------------|2---2-------0-------0---0---0---|
|0---0-----------0---0-----------|3---3---------------------------|
 ^P.M. bass notes (Guitar 1 only)

VS

VERSE (Guitar 1 & 2)
                         *                                *
 A chord diagramE MajorE       A chord diagramC majorC       A chord diagramD MajorD       A chord diagramD MajorD A chord diagramD MajorD     A chord diagramE MajorE        A chord diagramG+G       A chord diagramD MajorD       A chord diagramD MajorD A chord diagramD MajorD
|x===x=x=x===x===x===x=x=x=x=x=x=|x===x=x=x===x===x===x=x=x=x=x=x=|
|x===x=x=x===x===x===x=x=x=x=x=x=|x===x=x=x===x===x===x=x=x=x=x=x=|
|x===x=x=x===x===x===x=x=x=x=x=x=|x===x=x=x===x===x===x=x=x=x=x=x=|
 Strum on x's
 * A chord diagramD MajorD suspended

F1
FILL (Guitar 1 & 2)
 A chord diagramG+G       A chord diagramD MajorD       A chord diagramFF
|x===x=x=x=x=x=x=x===x=x===x=x=x=|
|x===x=x=x=x=x=x=x===x=x===x=x=x=|
|x===x=x=x=x=x=x=x===x=x===x=x=x=|
 Strum on x's

CR

CHORUS (Guitar 1 & 2)
|0---0-0-0---0---5-5---3---3-3-0-|
|1---1-1-1/3-3---6-6---2---2-2-0-|
|0---0-0-0---0---5-5---3---3-3-0-|
|2---2-2-2/4-4---0-0---0---0-0-0-|
|3---3-3-3/5-5-------------------|
|--------------------------------|

SOLO
Improvise over E, then over C...
(A chord diagramE MajorE over Verse, A chord diagramC majorC over Chorus)

2A

RIFF (Guitar 1 - Interlude)
 (A chord diagramD MajorD)            (A chord diagramA augmentedA)               (A chord diagramC majorC)             A chord diagramD MajorD
|--------------------------------|----------------2-2-2-2---2-2-0-|
|--------------------------------|----------------3-3-3-3---3-3-0-|
|--------------------------------|----------------2-2-2-2---2-2-0-|
|--------------------------------|----------------0-0-0-0---0-0-0-|
|--------------------------------|--------------------------------|
|--------------------------------|--------------------------------|

2B

RIFF (Guitar 2 - Interlude)
 A chord diagramD MajorD               A chord diagramA augmentedA           N.C. A chord diagramC majorC               A chord diagramD MajorD
|--2-----2---------0-----0-------|--------0-------2-2-2-2---2-2-0-|
|----3-------3-------2-----------|----1-----1---1-3-3-3-3---3-3-0-|
|------2-------2-------2---------|------0-----0---2-2-2-2---2-2-0-|
|0-------------------------------|--2-------------0-0-0-0---0-0-0-|
|----------------0-----------0-2-|3-------------------------------|
|--------------------------------|--------------------------------|


ENDING (Guitar 1 & 2)
A chord diagramA augmentedA (5th fret) - A chord diagramG+G (3rd fret) - A chord diagramE MajorE

PLAY ORDER:
-----------
Guitar 1:
1A 1A 1A 1A 1C VS VS 1A 1A 1C VS VS F1 CR CR CR CR SOLO! >>>>>>>>>>> 1A 1A 1C
VS VS 2A VS VS ENDING

Guitar 2:
-- -- 1B 1B 1C VS VS 1B 1B 1C VS VS F1 CR CR CR CR VS VS CR CR CR CR 1B 1B 1C
VS VS 2B VS VS ENDING

-- = Rests

Thanks for taking the time to read this far.  Send e-mail to
jbelaire@adrian.adrian.edu for a recording of this
song (and others!) or if you have questions/comments.  Later...

Copyright (A chord diagramC majorC) 1995 The Music of Honeywell's Kids.  All rights reserved.

Almost there ...

Sign in to get your own page with links to favourite songs and more. You are just one click away...

Login with Facebook Login with Google